Song name
# A B C D E F G H I J K L M N O P Q R S T U V W X Y Z

Celldweller - Under My Feet tab

verse
|-------------------------------------|
|-------------------------------------|
|-------------------------------------|
|-------------------------------------|
|-4---6-4--4---6-4--4---6-4--8-6-8-6--|
|-2---2-2--4---4-4--2---2-2--6-4-4-4--|

chorus
|--------------------------|
|--------------------------|
|--------------------------|
|-6--6--4--3--4--3--4-3/6--|
|-4--4--2--1--2--1--2-1/4--|
|--------------------------|

post chorus
|------------|
|------------|
|------------|
|-66666666---|
|-44444444---|
|------------|

bridge
|------------|
|------------|
|------------|
|------------|
|-2/4~--2/4~-|
|------------|

|---------------|
|---------------|
|---------------|
|-4/11----------|
|-2/9--repeated-|
|---------------|
Tap to rate this tab
 
# A B C D E F G H I J K L M N O P Q R S T U V W X Y Z