Song name
# A B C D E F G H I J K L M N O P Q R S T U V W X Y Z

Celldweller - Stay With Me Unlikely tab

Artist:Celldweller
Song:Stay with me (unlikely)
Great song
|---------------------------------------------------------------------------|
|---------------------------------------------------------------------------|
|---7----7---3-------9-----9-----7--------7-------3----7--------------------|
|-----5---5---5--7------7-----7-----5--7-----5-------5-7--------------------|
|------------------------------------------------------5--------------------|
|------------------------------------------------------5--------------------|
Ok this is the next part
|--5-5-3-5-5-5-3-5----------------------------------------------------------|
|--5-5-3-5-5-5-3-5----------------------------------------------------------|
|--------------------0------------------------------------------------------|
|--------------------0------------------------------------------------------|
|---------------------5-----------------------------------------------------|
|---------------------5-----------------------------------------------------|

Please submit your own or im me the correct tabs at Tweek200000 gimme a break this my first tab
Tap to rate this tab
# A B C D E F G H I J K L M N O P Q R S T U V W X Y Z