Guitaretab - guitar tabs
Song name
# A B C D E F G H I J K L M N O P Q R S T U V W X Y Z

Cellution - Dirty Mexican tab

Intro
E------------------------------------------------------
B-------------------------------------------------X4---
G------------------------------------------------------
D----7-7-7-7-7-----------------------------------------
A-5--5-5-5-5-5-5--7-7-7-7-7----------------------------
E-3------------3--5-5-5-5-5----------------------------

Verse
E------------------------------------------------------
B-------------------------------------------------X4---
G------------------------------------------------------
D----7-7-7-7-5-5-5-5-----------------------------------
A-5--5-5-5-5-3-3-3-3-5-5-5-5-5-5-----------------------
E-3------------------3-3-3-3-3-3-----------------------

Chorus
E------------------------------------------------------
B-------------------------------------------------X4---
G------------------------------------------------------
D----7-7-7-7-7-----------------------------------------
A-5--5-5-5-5-5-5--7-7-7-7-7----------------------------
E-3------------3--5-5-5-5-5----------------------------
[ Tab from: http://www.guitaretab.com/c/cellution/29259.html ]
Verse
E------------------------------------------------------
B-------------------------------------------------X4---
G------------------------------------------------------
D----7-7-7-7-5-5-5-5-----------------------------------
A-5--5-5-5-5-3-3-3-3-5-5-5-5-5-5-----------------------
E-3------------------3-3-3-3-3-3-----------------------

Chorus
E------------------------------------------------------
B-------------------------------------------------X4---
G------------------------------------------------------
D----7-7-7-7-7-----------------------------------------
A-5--5-5-5-5-5-5--7-7-7-7-7----------------------------
E-3------------3--5-5-5-5-5----------------------------

Solo
E------------------------------------------------------
B-------------------------------------------------X2---
G------------------------------------------------------
D------------------------------------------------------
A---------5-7-7-7--------------------------------------
E-3-5-5-5---------5-7-7-7-3-3-5-5----------------------

Verse
E------------------------------------------------------
B-------------------------------------------------X4---
G------------------------------------------------------
D----7-7-7-7-5-5-5-5-----------------------------------
A-5--5-5-5-5-3-3-3-3-5-5-5-5-5-5-----------------------
E-3------------------3-3-3-3-3-3-----------------------
                           
Artists
Jonas Meyer- Guitar/Vocals
Michael Beil- Guitar
Mitch Eramo-Bass 
Marc Hayden-Drums