Song name
# A B C D E F G H I J K L M N O P Q R S T U V W X Y Z

Celtas Cortos - La Senda Del Tiempo tab

-----------------------------------------------7-10-7--7---------------------|
----------------------------------7-8-10--7-10-----------10--7-7-----7-------|
--------7------------7--------7-9--------------------------------9-7---9-7---|
---7--9---7-7----7-9---9--7-9----------------------------------------------9-|
---------------9-------------------------------------------------------------|
-----------------------------------------------------------------------------|

--------------------------------------|
-------------7-8-10--8-7-------7------|
-7-------7-9-------------9-7-9---9-7--|
-----7-9------------------------------|
--------------------------------------|
--------------------------------------|
Tap to rate this tab
 
# A B C D E F G H I J K L M N O P Q R S T U V W X Y Z