Song name
# A B C D E F G H I J K L M N O P Q R S T U V W X Y Z

Celtic Cross - Khatmandu tab

-------------------------------------------------------------------------------
			     Celtic Cross - "Khatmandu" 
http://en.wikipedia.org/wiki/Celtic_Cross_%28band%29
-------------------------------------------------------------------------------
Tabbed by: mattmanic
Email: richoux@gmail.com

Tuning: standard

Guitar 1

e|-------------------------------------------------------------------------|
B|---3-3-------3--3--------3--3-------3------------------------------------|
G|-------3-5-5------3-5-5-------3-5-5--------------3-3--2/3\2-0------------|
D|--------------------------------------------3h5-------------------5------|
A|---------------------------------------3h5--------------------3h5--------|
E|-------------------------------------------------------------------------|

Guitar 2 played now and then

e|-------------------------------------------------------------------------|
B|---3------------6-4-------------3----------------------------------------|
G|----------------------------3-5---3-0------------------------------------|
D|-------------------------------------------------------------------------|
A|-------------------------------------------------------------------------|
E|-------------------------------------------------------------------------|



| /  slide up
| \  slide down
| h  hammer-on
| p  pull-off
| ~  vibrato
| +  harmonic
| x  Mute note
===============================================================================
Tap to rate this tab
# A B C D E F G H I J K L M N O P Q R S T U V W X Y Z