Song name
# A B C D E F G H I J K L M N O P Q R S T U V W X Y Z

Celtic Frost - A Dying God Coming Into Human Flesh tab

I looked at ALL the tabs and they were all wrong and I decided to correct them by 
creating this. I am pretty sure that this is 90% correct. Enjoy.

Verse(Clean)
B (-----------------------------------------------------------)
F#(-----------------------------------------------------------)
D (-----------------------------------------------------------)
A (-------------------4((((----------------------2((((--------) X12
E (---------------4((((---------------------2((((-------------)
B (----4br----2((((------------4(------5((((------------------)

Before The Bridge(Clean)
B (--------------------)
F#(--------------------)
D (--------------------)
A (--------------------) X1
E (--------------------)
B (-----4br------------)

Bridge(Distortion)
B (-----------------------------------------------------------)
F#(-----------------------------------------------------------)
D (-----------------------------------------------------------)
A (-----------------------------------------------------------) X5
E (-----------------------------------------------------------)
B (---0--2((---2br--2br----0--2((((---0(----------------------)

Before The Chorus(Distortion)
B (-----------------------------------------------------------)
F#(-----------------------------------------------------------)
D (-----------------------------------------------------------)
A (-----------------------------------------------------------) X1
E (-----------------------------------------------------------)
B (---0--2((---2br--2br----0--2((((----0--0-------------------)

Chorus(Distortion)
B (-----------------------------------------------------------)
F#(-----------------------------------------------------------)
D (-----------------------------------------------------------)
A (-----------------------------------------------------------) X3
E (---2--4((----4br--4br----2--4((----3(----2--2--------------)
B (---0--2((----2br--2br----0--2((----1(----0--0--------------)

Before Verse #2(Distortion)
B (-----------------------------------------------------------)
F#(-----------------------------------------------------------)
D (-----------------------------------------------------------)
A (-----------------------------------------------------------) X1
E (---2--4((----4br--4br----2--4((----3((((((((---------------)
B (---0--2((----2br--2br----0--2((----1((((((((---------------)

Verse #2(Clean(It Has An Effect Where It Sounds Like It's Being Played Backwards, 
But The Notes Are Still The Same))
B (-----------------------------------------------------------)
F#(-----------------------------------------------------------)
D (-----------------------------------------------------------)
A (-------------------4((((----------------------2((((--------) X3
E (---------------4((((-------------------2((((---------------)
B (----4br----2((((----------4(------5((((--------------------)

Before Chorus #2(Clean)                  (Distortion)
B (-------------------------------------(---------------------)
F#(-------------------------------------(---------------------)
D (-------------------------------------(---------------------)
A (-------------------------------------(---------------------) X1
E (-------------------------------------(---------------------)
B (---4br----2(((((-------4br-----------(-----0--0------------)

Chorus #2(Distortion)
B (-----------------------------------------------------------)
F#(-----------------------------------------------------------)
D (-----------------------------------------------------------)
A (-----------------------------------------------------------) X4
E (---2--4(-4(---4br--4br----2--4(-4(---3(----2--2------------)
B (---0--2(-2(---2br--2br----0--2(-2(---1(----0--0------------) 

Chorus #2 Cont.(Distortion(Gradually Speeds Up))
B (-----------------------------------------------------------)
F#(-----------------------------------------------------------)
D (-----------------------------------------------------------)
A (-----------------------------------------------------------) X4
E (---2--4(-4(---4br--4br----2--4((-----3(----2--2------------)
B (---0--2(-2(---2br--2br----0--2((-----1(----0--0------------) 

Ending
B (--------------------)
F#(--------------------)
D (--------------------)
A (--------------------) X1
E (---2---4(((((((-----)
B (---0---2(((((((-----)

That's It!

Key: ( = 1 beat(the number fingering also counts as part of the beat)
     br= bend 1/4 steps then release
Tap to rate this tab
 
# A B C D E F G H I J K L M N O P Q R S T U V W X Y Z