Song name
# A B C D E F G H I J K L M N O P Q R S T U V W X Y Z

Cemetary - Closer To The Pain tab

-------------------------------------------------------------------------------
		     CLOSER TO THE PAIN - Cemetary
-------------------------------------------------------------------------------

By: Steinbrecher Andreas

The first version wasn't correct! So I just submit them again! Maybe it's possible to 
replce them!

Standard tuning:

Verse:
e|---------------------------------|
B|---------------------------------|
G|---------------------------------|
D|-2-2-2-2-2-2-2-2-2-2-2-2-2-2-2-2-|
A|-2-2-2-2-2-2-2-2-2-2-2-2-2-2-2-2-|
E|-0-0-0-0-0-0-0-0-0-0-0-0-0-0-0-0-|
   . . . . . . . . . . . . .   .

Pre-Chorus:
e|--------------------------------|
B|--------------------------------|
G|--------------------------------|
D|-2--7-7-\-5-5-/-9--2--7-7-\-5-5-|
A|-2--7-7-\-5-5-/-9--2--7-7-\-5-5-|
E|-0--5-5-\-3-3-/-7--0--5-5-\-3-3-|

I still haven't tabbed the part played during the Chorus. I haven't had the time yet,
but I sure will tab it someday!

ENJOY!

===============================================================================
Tap to rate this tab
# A B C D E F G H I J K L M N O P Q R S T U V W X Y Z