Song name
# A B C D E F G H I J K L M N O P Q R S T U V W X Y Z

Cemetary - Sunrise Never Again tab

1st riff
  1st guitar
e|--------------------------------------------------------------------------|
B|--------------------------------------------------------------------------|
G|--------------------------------------------------------------------------|
D|-5----------------------------------3------------------10-----------------|
A|-5----------------------------------3------------------10-----------------|
D|-5----------------------------------3------------------10-----------------|
  2nd guitar								    |
e|--------------------------------------------------------------------------|
B|--------------------------------------------------------------------------|
G|--------------------------------------------------------------------------|
D|-12~---12-------10-12-10-12-10-------12----12-------10-12-10-12-10--------|
A|----------10-13----------------13-12----10----10-13----------------13-12--|
D|--------------------------------------------------------------------------|

  1st guitar
e|--------------------------------------------------------------------------|
B|--------------------------------------------------------------------------|
G|--------------------------------------------------------------------------|
D|-5-----------------------------------3-----------------1------------------|
A|-5-----------------------------------3-----------------1------------------|
D|-5-----------------------------------3-----------------1------------------|
  2nd guitar								    |
e|--------------------------------------------------------------------------|
B|--------------------------------------------------------------------------|
G|--------------------------------------------------------------------------|
D|-12----12-------10-12-10-12-10-------12----12-------10-12---12^- 12-------|
A|----10----10-13----------------13-12----10----10-13-----------------------|
D|--------------------------------------------------------------------------|
						       ah   ah   ah
reapeat 1st riff


2nd riff
  1st guitar								   x2
e|--------------------------------------------------------------------------|
B|--------------------------------------------------------------------------|
G|--------------------------------------------------------------------------|
D|-5--------5--------5--5------5--5--5--5--------5--------5--5------5--5--5-|
A|-5--------5--------5--5------5--5--5--5--------5--------5--5------5--5--5-|
D|-5--------5--------5--5------5--5--5--5--------5--------5--5------5--5--5-|
  2nd guitar								    |
e|--------------------------------------------------------------------------|
B|--------------------------------------------------------------------------|
G|-------5~-------3~-------5~--3--3h5-2-------5~-------3~-------5~--7--7h8-7|
D|-----5--------5--------5------------------5--------5--------5-------------|
A|---5--------5--------5------------------5--------5--------5---------------|
D|--------------------------------------------------------------------------|


2nd b riff
  1st guitar
e|--------------------------------------------------------------------------|
B|--------------------------------------------------------------------------|
G|--------------------------------------------------------------------------|
D|-5--------5--------5--5------5--5--5--5--------5--------5--5------5--5--5-|
A|-5--------5--------5--5------5--5--5--5--------5--------5--5------5--5--5-|
D|-5--------5--------5--5------5--5--5--5--------5--------5--5------5--5--5-|
  2nd guitar								    |
e|--------------------------------------------------------------------------|
B|--------------------------------------------------------------------------|
G|-------5~-------3~-------5~--3--3h5-2-------5~-------3~-------2~--2--2h3-2|
D|-----5--------5--------5------------------5--------5--------5-------------|
A|---5--------5--------5------------------5--------5--------5---------------|
D|--------------------------------------------------------------------------|


3rd riff
  1st guitar (AcOuStIc)			     x2
e|--------------------------------------------|
B|--------------------------------------------|
G|-0--0-2--2-5--3\2-3--3-0--0----0------------|
D|----------------------------3----1--0h1p0-0-|
A|--------------------------------------------|
D|--------------------------------------------|
  2nd guitar (aCoUsTiC)			      |
e|--------------------------------------------|
B|--------------------------------------------|
G|-0--0-2--2-5---5-3--3--0--0-----------------|
D|----------------------------3--3--1---0---0-|
A|--------------------------------------------|
D|--------------------------------------------|

RIFF 1 x2

RIFF 2

RIFF 2b

RIFF 3

RIFF 1 x2


4th riff
  1st guitar (AcOuStIc)
e|-----------------------------------------------------------------|
B|-----3-----3---3-4-----3-----4--------1-----1---1-3-----1-----3--|
G|---3-----3-----------3-----3--------2-----2-----------2-----2----|
D|-0-----0-----0-----0-----0--------3-----3-----3-----3-----3------|
A|-----------------------------------------------------------------|
D|-----------------------------------------------------------------|

e|-----------------------------------------------------------------|
B|-----3-----3---3-4-----3-----1--------1-----1---1----------------|
G|---2-----2-----------2-----2--------2-----2-------3---3-0---0-2--|
D|-1-----1-----1-----1-----1--------0-----0-----0-----0-----0------|
A|-----------------------------------------------------------------|
D|-----------------------------------------------------------------|

5th riff
  1st guitar (aCoUsTiC)
e|-----------------------------------------------------------------|
B|-----3-----3---3-4-----3-----4--------1-----1---1-3-----1-----3--|
G|---3-----3-----------3-----3--------2-----2-----------2-----2----|
D|-0-----0-----0-----0-----0--------3-----3-----3-----3-----3------|
A|-----------------------------------------------------------------|
D|-----------------------------------------------------------------|
  2nd guitar							   |
e|-----------------------------------------------------------------|
B|-----------------------------------------------------------------|
G|-----------------------------------------------------------------|
D|-5--------------------------------3------------------------------|
A|-5--------------------------------3------------------------------|
D|-5--------------------------------3------------------------------|

  1st guitar (AcOuStIc)
e|-----------------------------------------------------------------|
B|-----3-----3---3-4-----3-----1--------1-----1---1----------------|
G|---2-----2-----------2-----2--------2-----2-------3---3-0---0-2--|
D|-1-----1-----1-----1-----1--------0-----0-----0-----0-----0------|
A|-----------------------------------------------------------------|
D|-----------------------------------------------------------------|
  2nd guitar							   |
e|-----------------------------------------------------------------|
B|-----------------------------------------------------------------|
G|-----------------------------------------------------------------|
D|-1--------------------------------0------------------------------|
A|-1--------------------------------0------------------------------|
D|-1--------------------------------0------------------------------|

RIFF 5


6th riff (SoLo RhYtHm) x3
e|-----------------------------------------------------------------|
B|-----------------------------------------------------------------|
G|-----------------------------------------------------------------|
D|-5--------5-----5-----5-----5----3--------3-----3-----3-----3----|
A|-5--------5-----5-----5-----5----3--------3-----3-----3-----3----|
D|-5--5-5-5-5-5-5-5-5-5-5-5-5-5----3--3-3-3-3-3-3-3-3-3-3-3-3-3----|
     
e|-----------------------------------------------------------------|
B|-----------------------------------------------------------------|
G|-----------------------------------------------------------------|
D|-1--------1-----1-----1-----1----0--------0-----0-----0-----0----|
A|-1--------1-----1-----1-----1----0--------0-----0-----0-----0----|
D|-1--1-1-1-1-1-1-1-1-1-1-1-1-1----0--0-0-0-0-0-0-0-0-0-0-0-0-0----|
 


solo					 x2
e|----------------------------------------|
B|-10t11t15--10t11t15--10t11t15--10t11t15-|
G|----------------------------------------|
D|----------------------------------------|
A|----------------------------------------|
D|----------------------------------------|
					 x2
e|----------------------------------------|
B|-11t13t18--11t13t18--11t13t18--11t13t18-|
G|----------------------------------------|
D|----------------------------------------|
A|----------------------------------------|
D|----------------------------------------|
					 x2
e|----------------------------------------|
B|-13t15t20--13t15t20--13t15t20--13t15t20-|
G|----------------------------------------|
D|----------------------------------------|
A|----------------------------------------|
D|----------------------------------------|

e|----------------------------------------|
B|-10t11t15--10t11t15--10t11t15--10t11t15-|
G|----------------------------------------|
D|----------------------------------------|
A|----------------------------------------|
D|----------------------------------------|

e|------------------------------------------------------------------------|
B|-10~--------------------------------------------------------------------|
G|------12~--15p14-14~--17p15-15~--19p17-17~--20p19-19~-20-19-17-15-17-15-|
D|------------------------------------------------------------------------|
A|------------------------------------------------------------------------|
D|------------------------------------------------------------------------|

e|------------------------------------------------------------------------|
B|------------------------------------------------------------------------|
G|-14-12~--14h15-14~------------------------------------------------------|
D|--------------------12h13-12~---10~-12-12~--8-10-8--------12~-12h13-12--|
A|---------------------------------------------------12-10----------------|
D|------------------------------------------------------------------------|

e|------------------------------------------------------------------------|
B|------------------------------------------------------------------------|
G|-------------------14~-15-14~--17-15-14-12-14~---19~-20-19~-17-19-19~~\-|
D|-15-13-12-10-12~--------------------------------------------------------|
A|------------------------------------------------------------------------|
D|------------------------------------------------------------------------|


RIFF 2

RIFF 2b

RIFF 3

RIFF 1 x2


7th riff
  1st guitar (AcOuStIc)
e|-----------------------------------------------------------------|
B|-----3-----3---3-4-----3-----4--------1-----1---1-3-----1-----3--|
G|---3-----3-----------3-----3--------2-----2-----------2-----2----|
D|-0-----0-----0-----0-----0--------3-----3-----3-----3-----3------|
A|-----------------------------------------------------------------|
D|-----------------------------------------------------------------|
  2nd guitar							   |
e|-----------------------------------------------------------------|
B|-----------------------------------------------------------------|
G|-----------------------------------------------------------------|
D|-5------------------------------5\3---------------------------3\-|
A|-5------------------------------5\3---------------------------3\-|
D|-5------------------------------5\3---------------------------3\-|

  1st guitar (aCoUsTiC)
e|-----------------------------------------------------------------|
B|-----3-----3---3-4-----3-----1--------1-----1---1----------------|
G|---2-----2-----------2-----2--------2-----2-------3---3-0---0-2--|
D|-1-----1-----1-----1-----1--------0-----0-----0-----0-----0------|
A|-----------------------------------------------------------------|
D|-----------------------------------------------------------------|
  2nd guitar							   |
e|-----------------------------------------------------------------|
B|-----------------------------------------------------------------|
G|-----------------------------------------------------------------|
D|-1------------------------------1\0------------------------------|
A|-1------------------------------1\0------------------------------|
D|-1------------------------------1\0------------------------------|

RIFF 7 x2


8th riff
  1st guitar (AcOuStIc)
e|-----------------------------------------------------------------|
B|-----3-----3---3-4-----3-----4--------1-----1---1-3-----1-----3--|
G|---3-----3-----------3-----3--------2-----2-----------2-----2----|
D|-0-----0-----0-----0-----0--------3-----3-----3-----3-----3------|
A|-----------------------------------------------------------------|
D|-----------------------------------------------------------------|
  2nd guitar							   |
e|-----------------------------------------------------------------|
B|-----------------------------------------------------------------|
G|-----------------------------------------------------------------|
D|-5------------------------------5\3---------------------------3\-|
A|-5------------------------------5\3---------------------------3\-|
D|-5------------------------------5\3---------------------------3\-|

Tap to rate this tab
 
# A B C D E F G H I J K L M N O P Q R S T U V W X Y Z