Song name
# A B C D E F G H I J K L M N O P Q R S T U V W X Y Z

Cemetary - Now She Walks The Shadows tab

------------------------------|
------------------------------|
------------------------------|
-------------------5---7------|
--2------------5---3---5---2--|
--0--00000000--3-0---0-----0--|
     ........    .   .


--------------------------------------------------------|
--------------------------------------------------------|
--------------------------------------------------------|
--4/5-555-555-4/5-9/3-777-777-9/7-3/5-555-555-4/7/9/----|
--2/3-333-333-2/3-7/5-555-555-7/5-2/3-333-333-2/5/7/2---|
---------------------------------------------------/0---|


----------------------------------------------------------|
----------------------------------------------------------|
----------------------------------------------------------|
-----------------------------------------------7-5--------|
--2----5---5/7--2----5---5/8----2----5---5/7-------6-5-6--|
--0--0-3-0-3/5--0--0-3-0-3/6----0--0-3-0-3/5--------------|
     .   .         .   .           .   .


-------------------|
-------------------|
-------------------|
-------------------|
-----2-2------2-2--|
-xxx-0-0--xxx-0-0--|

----------------------------------------------------|
----------------------------------------------------|
----------------------------------------------------|
----------------------------------------------------|
-2----5---------5---------5---------2---------------|
-0-00-3-000-000-3-000-000-3-000-000-0-000-3/5-3/5---|
Tap to rate this tab
# A B C D E F G H I J K L M N O P Q R S T U V W X Y Z