Song name
# A B C D E F G H I J K L M N O P Q R S T U V W X Y Z

Censored In Color - Untitled tab

Guitar 1
(thompson)

-----------------------------15\--|
------------12------13-15/17-17\--|
------9-----12-12/14--------------|
--7/10-10/12----------------------|
----------------------------------| x3
----------------------------------|

------------------------|
-----------6-----6---5--|
------9---------4---2---|
--7/10-10\7--7\5---3----|
------------------------|
------------------------|

--10-8-10-8-10/12--------------10-8-10-8-10/12------------|
-------------------10--10---10----------------------15----|
---------------------10--10-----------------------13--13--|
------------------------------------------------14--------|
----------------------------------------------------------|
----------------------------------------------------------|

-----0~------------|
---------------8~--|
--9~--------9~-----|
-------------------|
-------------------| x2
-------------------|

-----------------------|
-----------6-----------|
------9---------3---2--|
--7/10-10\7--7\5-5\3---|
-----------------------|
-----------------------|

-------------------------------|
-------------------------------|
--------10-------101010101010--|
--7-5-7-10-7-7-7-101010101010--|
--7-5-7-8--7-7-7-8-8-8-8-8-8---| x4
--7-5-7----7-7-7---------------|

------------------------------------|
-----8--8-------12----------13------|
---5--5------9----9-----10----10----|
--7-7--7-7-10-10---10-12--12----12--|
------------------------------------|
------------------------------------|

----------------------------------------|
-----8--8-------12/13\12------13----15--|
---5--5------9------------10------13----|
--7-7--7-7-10-10--------12--12--14------|
----------------------------------------|
----------------------------------------|

------------------------------------|
-----8--8-------12----------13------|
---5--5------9----9-----10----10----|
--7-7--7-7-10-10---10-12--12----12--|
------------------------------------|
------------------------------------|

----------------------------------------|
-----8--8-------12/13\12------13----15--|
---5--5------9------------10------13----|
--7-7--7-7-10-10--------12--12--14------|
----------------------------------------|
----------------------------------------|

-----0~------------|
---------------8~--|
--9~--------9~-----|
-------------------|
-------------------| x2
-------------------|

-----------------------|
-----------6-----------|
------9---------3---2--|
--7/10-10\7--7\5-5\3---|
-----------------------|
-----------------------|

-------------------------------|
-------------------------------|
--------10-------101010101010--|
--7-5-7-10-7-7-7-101010101010--|
--7-5-7-8--7-7-7-8-8-8-8-8-8---| x4
--7-5-7----7-7-7---------------|

--------0-----------0-----------0--------0----|
----13---13-----12---12-----10---10----9--9---|
--14--14---14-13--13---13-10--10---10-9-9--9--|
----------------------------------------------|
----------------------------------------------| x4
----------------------------------------------|

-----------------------------15\--|
------------12------13-15/17-17\--|
------9-----12-12/14--------------|
--7/10-10/12----------------------|
----------------------------------| x3
----------------------------------|

------------------------|
-----------6-----6---5--|
------9---------4---2---|
--7/10-10\7--7\5---3----|
------------------------|
------------------------|

-----------------------------15\--|
------------12------13-15/17-17\--|
------9-----12-12/14--------------|
--7/10-10/12----------------------|
----------------------------------| x3
----------------------------------|

------------------------|
-----------6-----6---5--|
------9---------4---2---|
--7/10-10\7--7\5---3----|
------------------------|
------------------------|

-----------------------------15\--|
------------12------13-15/17-17\--|
------9-----12-12/14--------------|
--7/10-10/12----------------------|
----------------------------------| x3
----------------------------------|

------------------------|
-----------6-----6---5--|
------9---------4---2---|
--7/10-10\7--7\5---3----|
------------------------|
------------------------|

-----------------------------15\--|
------------12------13-15/17-17\--|
------9-----12-12/14--------------|
--7/10-10/12----------------------|
----------------------------------| x3
----------------------------------|

------------------------|
-----------6-----6---5--|
------9---------4---2---|
--7/10-10\7--7\5---3----|
------------------------|
------------------------|
Guitar 2
(jovan)

----------------------|
----------------------|
------9----5---4---2--|
--7/10-10\7-7\5-5\3---|
----------------------| x4
----------------------|

------15---------15-----12----12-12----12--|
----13--13-----13--13-----10-------10------|
--14------14-14------14-----10-------10----|
-------------------------------------------|
-------------------------------------------| x2
-------------------------------------------|

-----------12-12-12-12-12--------------------------|
--13-13-13-13-13-13-13-13-12-12-12-10-10-10-10-10--|
--14-14-14----------------12-12-12-10-10-10-10-10--|
---------------------------------------------------|
---------------------------------------------------|
---------------------------------------------------|

-------------------------------|
-------------------------------|
--------10-------101010101010--|
--7-5-7-10-7-7-7-101010101010--|
--7-5-7-8--7-7-7-8-8-8-8-8-8---| x4
--7-5-7----7-7-7---------------|

------15---------15-----12----12-12----12--|
----13--13-----13--13-----10-------10------|
--14------14-14------14-----10-------10----|
-------------------------------------------|
-------------------------------------------| x2
-------------------------------------------|

-----------12-12-12-12-12--------------------------|
--13-13-13-13-13-13-13-13-12-12-12-10-10-10-10-10--|
--14-14-14----------------12-12-12-10-10-10-10-10--|
---------------------------------------------------|
---------------------------------------------------|
---------------------------------------------------|

-------------------------------|
-------------------------------|
--------10-------101010101010--|
--7-5-7-10-7-7-7-101010101010--|
--7-5-7-8--7-7-7-8-8-8-8-8-8---| x4
--7-5-7----7-7-7---------------|

-------------------------------|
-----0------0------0------0----|
---5--5---5--5---2--2---1--1---|
--7-7--7-6-6--6-3-3--3-2-2--2--|
-------------------------------| x4
-------------------------------|

-------------------------------------------|
-------------------------------------------|
-------------------------------------------|
--10---------5----------7-----------3---2--|
--10---------5----------7-----------3---3--| x4
--10---------5----------7-----------3---2--|
Tap to rate this tab
 
# A B C D E F G H I J K L M N O P Q R S T U V W X Y Z