Song name
# A B C D E F G H I J K L M N O P Q R S T U V W X Y Z

Censored In Color - Creepin tab

Guitar 1
(thompson)

--20(whammy)---------|
---------------------|
---------------------|
---------------------|
---------------------|
---------------------|

--/20------18--17--------15--13---------12--13--|
------------------------------------------------|
------------------------------------------------|
------------------------------------------------|
------------------------------------------------| fast picking
------------------------------------------------|

--/20------18--17--------15--17-----------------|
------------------------------------------------|
------------------------------------------------|
------------------------------------------------|
------------------------------------------------| fast picking
------------------------------------------------|

---------------10-8-(-0)------------10-12-13-12------|
----6-(6)-8/10-------10----6---8/10-------------10\--|
-------7---------------------7-----------------------|
-----------------------------------------------------|
--5----------------------5---------------------------|
-----------------------------------------------------|

---------------10-8-(-0)---------------------------------|
----6-(6)-8/10-------10----6-----6-----6---6-----6-------|
-------7---------------------7-----7---------6-----6--6--|
---------------------------------------------------------|
--5----------------------5-----5-----5---4-----4-----4---|
---------------------------------------------------------|

--/20------18--17--------15--13---------12--13--|
------------------------------------------------|
------------------------------------------------|
------------------------------------------------|
------------------------------------------------| fast picking
------------------------------------------------|

--/20------18--17--------15--17-----------------|
------------------------------------------------|
------------------------------------------------|
------------------------------------------------|
------------------------------------------------| fast picking
------------------------------------------------|

---------------10-8-(-0)------------10-12-13-12------|
----6-(6)-8/10-------10----6---8/10-------------10\--|
-------7---------------------7-----------------------|
-----------------------------------------------------|
--5----------------------5---------------------------|
-----------------------------------------------------|

---------------10-8-(-0)---------------------------------|
----6-(6)-8/10-------10----6-----6-----6---6-----6-------|
-------7---------------------7-----7---------6-----6--6--|
---------------------------------------------------------|
--5----------------------5-----5-----5---4-----4-----4---|
---------------------------------------------------------|
Tap to rate this tab
 
# A B C D E F G H I J K L M N O P Q R S T U V W X Y Z