Song name
# A B C D E F G H I J K L M N O P Q R S T U V W X Y Z

Centro-matic - All The Lightning Rods chords

Highlighted       Show chord diagrams
CHORDS USED:
------------
      D5     C      G    Bsus4  Csus2
e|----x------x------3------x------x----|
B|----2------1------3------0------1----|
G|----3------0------0------4------0----|
D|----0------2------0------4------0----|
A|----0------3------2------2------3----|
E|----x------x------3------0------x----|


---------------------------------------------------|
---------------------------------------------------|


D5

                  C                 G
Count off all your clips and evaluate the score

             Bsus4                   D5
By the way it looks you'll be here no more

               C                        G
Once was all it took for what you had in store


e|-------------------------|
B|-------------------------|
G|-------------------------|
D|-------------------------|
A|-------------------------|
E|----3---/5---/7---8------|


D5

                 C                    G
It's not a bravery, and it's not a sorcery

               Bsus4             D5
It's not a loyalty, it's instability

                     C                        G
And a shame for us to see, such a shame for us to see




    C               Csus2          G
And I'll be running circles in the rain

             Bsus4                       D5
Waiting for a ride, counting all the lightning rods

            C                G
Hoping for a wind to carry me away


e|-------------------------|
B|-------------------------|
G|-------------------------|
D|-------------------------|
A|-------------------------|
E|----3---/5---/7---8------|


D5

                 C                      G
The sun it always sets in most peculiar ways

                     Bsus4                       D5
Sometimes behind the clouds, sometimes in full display

                  C                   G
But never set like this, no not before today


FILL:
-----
e|-------------------------|
B|-------------------------|
G|-------------------------|
D|-------------------------|
A|-------------------------|
E|----3---/5---/7---8------|


D5

                   C                   G
And the silence overcame the conversation heard

                          Bsus4                      D5
In your speechlessness was comfort. You did not say a word

                      C                        G
'cause once was all it took for what you had in store



    C               Csus2          G
And I'll be running circles in the rain

             Bsus4                       D5
Waiting for a ride, counting all the lightning rods

            C                G
Hoping for a wind to carry me away



OUTRO:
-----
Same chords and timing as chorus (C, Csus2, G, 
Bsus4, D5, C, G)
Tap to rate this tab
# A B C D E F G H I J K L M N O P Q R S T U V W X Y Z