Song name
# A B C D E F G H I J K L M N O P Q R S T U V W X Y Z

Centurian - Soultheft tab

CENTURIAN -"SOULTHEFT"
FROM THE ALBUM "OF PUREST FIRE"

okay you infernal hellfucks here is a 
badass song that no one else has tabbed.
there might be some errors but i think it's
pretty damn close. because i am so lazy, 
i didn't map out the song structure. it's
not too hard to figure out out though.
e-mail me any corrections 
at tomseckman@yahoo.com



intro(THESE * ARE 11'S NOT 1'S)
    
|-------|-----------------------------------------------------------------------
|-------|-----------------------------------------------------------------------
|-------|-----------------------------------------------------------------------
|-2---2-|-----------*-----------------------------------------------------------
|-2---2-|-777999111111p77---777999111111p77---777999111111p77--777999111111p77--
|-0---0-|----------------88----------------88----------------88---------------88
          ............ .... ............ .... ............ .... ............ ...

|-----------------------|--------------------|
|-----------------------|--------------------|
|-----------------------|--------------------|
|-----------------------|--------------------|
|-666899---6669988------|-666899--6669988----|
|-------88--------88877-|-------88-------8-7-|
  ........ ............   ...............

|-----------------------------------|
|-----------------------------------|
|-----------------------------------|
|-----------------------------------|
|-7/8--6--7/8--6--7/8--6--7-3335566-|
|-5/6004005/6004005/6004005---------|
     .. ..   .. ..   .. ..  .......

|----------------------|
|----------------------|
|----------------------|
|----------------------|
|---66669--66h8h9p6\44-|
|-88-----88------------|
  ...........       ..

|--------------------------------------|--------|-------------------|
|--------------------------------------|--------|-------------------|
|--------------------------------------|--------|-------------------|
|--------------------------------------|--------|-------------------|
|-333---------333---------333----------|3-7\6/7-|-3-7\6/7---3-7\6/7-|
|----555444777---555444777---555444777-|--5\4/5-|---5\4/5-0---5\4/5-|
  ....................................                    .
Tap to rate this tab
 
# A B C D E F G H I J K L M N O P Q R S T U V W X Y Z