Song name
# A B C D E F G H I J K L M N O P Q R S T U V W X Y Z

Cerebral Ballzy - Office Rocker tab

-------------------------------------------------------------------------------
                         Office Rocker - Cerebral Ballzy
-------------------------------------------------------------------------------

Tabbed by:  Corey D.
Email:  xxda4kxx@aim.com

NOTE:  Song does not have a intro or chorus which both sound the same.
This is exactly how the song is played IN ORDER.

--------------------
Tuning:  Standard
--------------------


1ST PART/VERSE 1
     E5   C5 B5   E5  C5 D5
E|----------------------------------|
B|----------------------------------|
G|--9999---------9999--5--7---------|
D|--9999--10--9--9999--5--7---------|  X 4
A|--7777--10--9--7777--3--5---------|
E|---------8--7---------------------|

        A5          D5      C5
E|-----------------------------------------|
B|-----------------------------------------|
G|---------------7777777--5555555----------|
D|--7-7-7-7-7-7--7777777--5555555----------|
A|--7-7-7-7-7-7--5555555--3333333----------|
E|--5-5-5-5-5-5----------------------------|

     E5  C5 D5
E|--------------|
B|--------------|
G|--9999--5--7--|
D|--9999--5--7--|  X 2
A|--7777--3--5--|
E|--------------|

        A5        D5     C5
E|-----------------------------------------|
B|-----------------------------------------|
G|---------------7777777--5555555----------|
D|--7-7-7-7-7-7--7777777--5555555----------|
A|--7-7-7-7-7-7--5555555--3333333----------|
E|--5-5-5-5-5-5----------------------------|

     E5  C5 D5
E|--------------|
B|--------------|
G|--9999--5--7--|
D|--9999--5--7--|  X 2
A|--7777--3--5--|
E|--------------|

        A5        D5     C5
E|-----------------------------------------|
B|-----------------------------------------|
G|---------------7777777--5555555----------|
D|--7-7-7-7-7-7--7777777--5555555----------|
A|--7-7-7-7-7-7--5555555--3333333----------|
E|--5-5-5-5-5-5----------------------------|

     E5  C5 D5
E|--------------|
B|--------------|
G|--9999--5--7--|
D|--9999--5--7--|  X 2
A|--7777--3--5--|
E|--------------|

        A5        D5     C5
E|-----------------------------------------|
B|-----------------------------------------|
G|---------------7777777--5555555----------|
D|--7-7-7-7-7-7--7777777--5555555----------|
A|--7-7-7-7-7-7--5555555--3333333----------|
E|--5-5-5-5-5-5----------------------------|

          B5
E|-------------------|
B|-------------------|
G|-------------------|
D|--9-9-9-9-9-9-9-9--|
A|--9-9-9-9-9-9-9-9--|
E|--7-7-7-7-7-7-7-7--|

The 2nd part/verse 2 of the song is the same exact thing what is above except for the 
ending chord.

ENDING CHORD
   B5
E|-----|
B|-----|
G|-----|
D|--9--|
A|--9--|
E|--7--|

Please email me for any corrections, thanks
Tap to rate this tab
# A B C D E F G H I J K L M N O P Q R S T U V W X Y Z