Song name
# A B C D E F G H I J K L M N O P Q R S T U V W X Y Z

Ceremony - Kersed tab

violence violence
bridge nine records
www.ceremonyhc.com
www.myspace.com/ceremony
standard tuning half-step down


-0~---------------------------------------------|
--------0~--------------------------------------|
----0~------2~----2~-----5-3-2------------------|
------------2~----2~-----5-3-2------------------|
------------0~----0~-----3-1-0------------------|
------------------------------------------------|


------------------------------------------------|
------------------------------------------------|
-2--2-2-2-2-2-2-5-5-5-8--8-8-8------------------|
-2--2-2-2-2-2-2-5-5-5-8--8-8-8------------------|
-0--0-0-0-0-0-0-3-3-3-6--6-6-6------------------|
------------------------------------------------|


------------------------------------------------|
------------------------------------------------|
-2--2-2-2-2-2-2-5-3-2---------------------------|
-2--2-2-2-2-2-2-5-3-2---------------------------|
-0--0-0-0-0-0-0-3-1-0---------------------------|
------------------------------------------------|
play above two bars twice and hold out the g# chord on the second ending.


------------------------------------------------|
------------------------------------------------|
-5-5-5-5-3-3-3-3--2-----------------------------|
-5-5-5-5-3-3-3-3--2x14--------------------------|
-3-3-3-3-1-1-1-1--0-----------------------------|
------------------------------------------------|
Tap to rate this tab
# A B C D E F G H I J K L M N O P Q R S T U V W X Y Z