Song name
# A B C D E F G H I J K L M N O P Q R S T U V W X Y Z

Ceremony - Youre All The Same tab

Help us improve GuitareTab! Take a short survey!
violence violence
bridge nine records
www.ceremonyhc.com
www.myspace.com/ceremony
standard tuning half-step down


------------------------------------------------|
------------------------------------------------|
------------------------------------------------|
-5-5-5-2-4/5-2-2-2-2-2-2-2-2--------------------|
-5-5-5-2-4/5-2-2-2-2-2-2-2-2--------------------|
-3-3-3-0-2/3-0-0-0-0-0-0-0-0--------------------|
               . . . . . . .


------------------------------------------------|
------------------------------------------------|
------------------------------------------------|
-5-5-5-4/5-2-2-2-2-5-4-5-5-5-4/5-2-2-2-2-2-2-2--|
-5-5-5-4/5-2-2-2-2-5-4-5-5-5-4/5-2-2-2-2-2-2-2--|
-3-3-3-2/3-0-0-0-0-3-2-3-3-3-2/3-0-0-0-0-0-0-0--|
   . .       . . .                 . . . . . .
on the last time don't palm mute the open eb chord


------------------------------------------------|
------------------------------------------------|
------------------------------------------------|
-5-5-5-2-4/5-2-2-2-2-5-5-4-4--------------------|
-5-5-5-2-4/5-2-2-2-2-5-5-4-4--------------------|
-3-3-3-0-2/3-0-0-0-0-3-3-2-2--------------------|


------------------------------------------------|
------------------------------------------------|
------------------------------------------------|
-5-5-5-2-4/5-2-2-2-2-2-2-2-2--------------------|
-5-5-5-2-4/5-2-2-2-2-2-2-2-2--------------------|
-3-3-3-0-2/3-0-0-0-0-0-0-0-0--------------------|
play above two twice


------------------------------------------------|
------------------------------------------------|
------------------------------------------------|
-5-5-5-4/5-2-2-2-2-5-4-5-5-5-4/5-2-2-2-2-2-2-2--|x2
-5-5-5-4/5-2-2-2-2-5-4-5-5-5-4/5-2-2-2-2-2-2-2--|
-3-3-3-2/3-0-0-0-0-3-2-3-3-3-2/3-0-0-0-0-0-0-0--|
   . .       . . .                 . . . . . .
Related for Youre All The Same tab