Song name
# A B C D E F G H I J K L M N O P Q R S T U V W X Y Z

Ceremony - It Rained In My Head tab

scared people ep
bridge nine records
ceremonyhc.com
standard tuning down half-step


-2--2---2---0------------------------------------|
-0--0---0---0------------------------------------|
-4--4---4---3------------------------------------|
--------3---0------------------------------------|
-------------------------------------------------|
-------------------------------------------------|


-------------------------------------------------|
-------------------------------------------------|
-------5-----6-----------------------------------|
-2-----5-x4--6-x4--5-----------------------------|
-2-x8--3-----4-----5-x16-------------------------|
-0-----------------3-----------------------------|


-------------------------------------------------|
-------------------------------------------------|
---------5-----6---------------------------------|
-2-2-----5-x4--6-x4--5---------------------------|
-2-2-x8--3-----4-----5-x16-----------------------|
-0-0-----------------3---------------------------|
   .     .     .     .
gradually come off of the palm mute on the last chord.


-------------------------------------------------|
-------------------------------------------------|
---------5-----6---------------------------------|
-2-2-----5-x4--6-x4--5---------------------------|
-2-2-x8--3-----4-----4-x16-----------------------|
-0-0-----------------3---------------------------|
   .     .     .     .

play the above two bars twice then


-------------------------------------------------|
-------------------------------------------------|
-------------------------------------------------|
-2~----------------------------------------------|
-2~----------------------------------------------|
-0~----------------------------------------------|
Tap to rate this tab
# A B C D E F G H I J K L M N O P Q R S T U V W X Y Z