Song name
# A B C D E F G H I J K L M N O P Q R S T U V W X Y Z

Ceremony - Dead Moon California tab

ceremony
still nothing moves you lp
bridge nine records
standard tuning down a half-step
ceremonyhc.com


---------------------------------------------|
---------------------------------------------|
---------------------------------------------|
-2~------------------------------------------|
-2~------------------------------------------|
-0~------------------------------------------|

---------------------------------------------|
---------------------------------------------|
---------------------------------------------|
----------------------2-2-2-2~---------------|
-----3-----2-----1----2-2-2-2~---------------|
-3-4---2-3---1-2---1--0-0-0-0~---------------|

it's just a little intro song, these are the two riffs played during it.
Tap to rate this tab
# A B C D E F G H I J K L M N O P Q R S T U V W X Y Z