Song name
# A B C D E F G H I J K L M N O P Q R S T U V W X Y Z

Ceremony - The Difference Between Looking And Seeing tab

ceremony
still nothing moves you lp
bridge nine records
standard tuning down a half step
ceremonyhc.com


---------------------------------------------|
---------------------------------------------|
----7---9---12-------------------------------|
-2--7x8-9x3-10x4-2---------------------------|
-2--5---7---10---2x16------------------------|
-0---------------0---------------------------|

---------------------------------------------|
---------------------------------------------|
---------------------------------------------|
-5-3-2---------------------------------------|
-5-3-2-x4------------------------------------|
-3-1-0---------------------------------------|

play the above two twice then on the last time of riff two just hit the first two
 then slow down riff one four times, then back into it normal speed four more times and 
on eflat5
Tap to rate this tab
# A B C D E F G H I J K L M N O P Q R S T U V W X Y Z