Song name
# A B C D E F G H I J K L M N O P Q R S T U V W X Y Z

Ceremony - Feel Like A Man tab

Help us improve GuitareTab! Take a short survey!
CEREMONY
"FEEL LIKE A MAN" (NEGATIVE FX COVER)
STANDARD TUNING



VERSE

|-----------------------|
|-----------------------|
|----7--5--3--2---------|
|----7--5--3--2--5--7---|
|----5--3--1--0--5--7---|
|----------------3--5---|


CHORUS

|------------------------------------|
|------------------------------------|
|------------------------------------|
|----10---8---7---5---3---5---7---5--|
|----10---8---7---5---3---5---7---5--|
|----8----6---5---3---1---3---5---3--|
Related for Feel Like A Man tab