Song name
# A B C D E F G H I J K L M N O P Q R S T U V W X Y Z

Ceremony - Walking Home tab

-------------------------------------------------------------------------------
			     WALKING HOME - Ceremony
-------------------------------------------------------------------------------
Tabbed by: thinkposi

Tuning: half step down

not sure about the intro
e|------|
B|------|
G|---9--|
D|---9--|
A|---7--|
E|------|

e|---------------------------------------------------------------------------|
B|---------------------------------------------------------------------------|
G|----------5-5-5-5-------5--------------------------------------------------|
D|--2-2-4-4-5-5-5-5-2-2-2-5-4-4-4-4------------------------------------------|
A|--2-2-4-4-3-3-3-3-2-2-2-3-4-4-4-4------------------------------------------|
E|--0-0-2-2---------0-0-0---2-2-2-2------------------------------------------|

e|---------------------------------------------------------------------------|
B|---------------------------------------------------------------------------|
G|---------------------------------------------------------------------------|
D|-2~-----6~-----4~----------------------------------------------------------|
A|-2~-----6~-----4~----------------------------------------------------------|
E|-0~-----4~-----2~----------------------------------------------------------|
Tap to rate this tab
# A B C D E F G H I J K L M N O P Q R S T U V W X Y Z