Song name
# A B C D E F G H I J K L M N O P Q R S T U V W X Y Z

Ceremony - Troubled Waters tab

violence violence
bridge nine records
www.ceremonyhc.com
www.myspace.com/ceremony
standard tuning half-step down


------------------------------------------------|
------------------------------------------------|
-9-9-9-9-9-9-9-9--------------------------------|
-9-9-9-9-9-9-9-9-8-8-7-7-8-8-7-7----------------|x4
-7-7-7-7-7-7-7-7-8-8-7-7-8-8-7-7----------------|
-----------------6-6-5-5-6-6-5-5----------------|


------------------------------------------------------|
------------------------------------------------------|
------------------------------------------------------|
-2-2-2-2-2-2-2--2-2-2-2-2-2-2-8-8-7-7-3-3-3-3-5-5-5-5-|x2
-2-2-2-2-2-2-2--2-2-2-2-2-2-2-8-8-7-7-3-3-3-3-5-5-5-5-|
-0-0-0-0-0-0-0--0-0-0-0-0-0-0-6-6-5-5-1-1-1-1-3-3-3-3-|
   . . . . . .    . . . . . .


------------------------------------------------|
------------------------------------------------|
-9-9-9-9-9-9-9-9--------------------------------|
-9-9-9-9-9-9-9-9-8-8-7-7-8-8-7-7----------------|x2
-7-7-7-7-7-7-7-7-8-8-7-7-8-8-7-7----------------|
-----------------6-6-5-5-6-6-5-5----------------|


------------------------------------------------|
------------------------------------------------|
------------------------------------------------|
-2------3-3-2---2-----3-3-2---------------------|
-2-x46--3-3-2---2-x16-3-3-2---------------------|
-0------1-1-0---0-----1-1-0---------------------|


------------------------------------------------|
------------------------------------------------|
-9-9-8-8----9-----------------------------------|
-9-9-8-8-x4-9-----------------------------------|
-7-7-6-6----7-----------------------------------|
------------------------------------------------|
Tap to rate this tab
# A B C D E F G H I J K L M N O P Q R S T U V W X Y Z