Guitaretab - guitar tabs
Song name
# A B C D E F G H I J K L M N O P Q R S T U V W X Y Z

Ceremony - Twenty Four Hour Fever Watch tab

Song: Twenty Four Hour Fever Watch
Artist: Ceremony
Album: Still Nothing Moves You

Tabbed by: garyhann
Email: garyhann@live.co.uk

Tuning: Drop D

Easy peasy!


  0:00
e|-----------------------------|
B|-----------------------------|
G|-----------------------[x4]--|
D|--5-6-5-6-5-6-333-333--------|
A|--5-6-5-6-5-6-333-333--------|
D|--5-6-5-6-5-6-333-333--------|
                ... ...
[ Tab from: http://www.guitaretab.com/c/ceremony/184837.html ]
  0:10
e|--------------------------------------|
B|--5---5---5---5---5---5---5---5-------|
G|--3---3---3---3---3---3---3---3[x2]--|
D|--2-2-2-2-2-2-2-2-2-2-2-2-2-2-2-------|
A|--2-2-2-2-2-2-2-2-2-2-2-2-2-2-2-------|
D|--2-2-2-2-2-2-2-2-2-2-2-2-2-2-2-------|
      .   .   .   .   .   .   .  

  0:15
e|-----------------------------|
B|-----------------------------|
G|-----------------------[x2]--|
D|--5-6-5-6-5-6-333-333--------|
A|--5-6-5-6-5-6-333-333--------|
D|--5-6-5-6-5-6-333-333--------|
                ... ...

  0:21
e|-----------------------------|
B|-----------------------------|
G|-------------------[x4]------|
D|--5-6-5-6-5-6-5-6------------|
A|--5-6-5-6-5-6-5-6------------|
D|--5-6-5-6-5-6-5-6------------|

Related for Twenty Four Hour Fever Watch tab