Ceremony - Pressures On tab

Song: Pressure's On (Red C cover)
Band: Ceremony
Album: Violence Violence
tabbed by: Thomas Pashko

Half step down
eb-Bb-Gb-Db-Ab-Eb

Intro

Law's on my back...

eb|-------------|
Bb|-------------|
Gb|-------------|
Db|-3-3-3-3-6-6-|
Ab|-3-3-3-3-6-6-|
Eb|-1-1-1-1-4-4-|

Pressure's always on...

eb|-------------|
Bb|-6-6-6-6-8-8-|
Gb|-6-6-6-6-8-8-|
Db|-6-6-6-6-8-8-|
Ab|-4-4-4-4-6-6-|
Eb|-------------|

Never able do things on my own...

eb|-----------------------------|
Bb|-----------------6-6-6-6-8-8-|
Gb|-----------------6-6-6-6-8-8-|
Db|-3-3-3-3-6-6-6-6-6-6-6-6-8-8-|
Ab|-3-3-3-3-6-6-6-6-4-4-4-4-6-6-|
Eb|-1-1-1-1-4-4-4-4-------------|

The way we dress...

eb|-------------|
Bb|-------------|
Gb|-------------|
Db|-3-3-3-3-6-6-|
Ab|-3-3-3-3-6-6-|
Eb|-1-1-1-1-4-4-|

Disturbs them all...

eb|-------------|
Bb|-6-6-6-6-8-8-|
Gb|-6-6-6-6-8-8-|
Db|-6-6-6-6-8-8-|
Ab|-4-4-4-4-6-6-|
Eb|-------------|

They push us against the wall...


Chorus

eb|---------------------------------|
Bb|-6-6-6-6---------8-8-8-8---------|
Gb|-6-6-6-6---------8-8-8-8---------|
Db|-6-6-6-6-6-6-6-6-8-8-8-8-8-8-8-8-|
Ab|-4-4-4-4-6-6-6-6-6-6-6-6-8-8-8-8-|
Eb|---------4-4-4-4---------6-6-6-6-|


Verse

eb|---------------------------------|
Bb|-----------------6-6-6-6-8-8-8-8-|
Gb|-----------------6-6-6-6-8-8-8-8-|
Db|-3-3-3-3-6-6-6-6-6-6-6-6-8-8-8-8-|
Ab|-3-3-3-3-6-6-6-6-4-4-4-4-6-6-6-6-|
Eb|-1-1-1-1-4-4-4-4-----------------|
Tap to rate this tab
 
# A B C D E F G H I J K L M N O P Q R S T U V W X Y Z