Ceremony - He-god-has Favored Our Undertakings tab

Song: He-god-Has Favored Our Undertakings
Band: Ceremony
Album: Still Nothing Moves You
tabbed by: Thomas Pashko

Tuning: Half-step down
Eb-Bb-Gb-Db-Ab-Eb

Intro/Verse

eb|------------------------|
Bb|------------------------|
Gb|-8----9-11--------------|
Db|-8----9-11---7-8-7-8-2--|
Ab|-6~---7--9---7-8-7-8-2--|
Eb|-------------5-6-5-6-0--|

Bridge

Guitar fret mutes while bass plays

Gb|-------------------|
Db|-------------------|
Ab|-6---7--6-7-14---9-|
Eb|-------------------|

Outro

eb|----------------------|
Bb|----------------------|
Gb|----------------------|
Db|--5--4--3--2--4--3--2-|
Ab|--5--4--3--2--4--3--2-|
Eb|--3--2--1--0--2--1--0-|

then

eb|---------------|
Bb|---------------|
Gb|--8------8-9---|
Db|--8--7-7-8-9---|
Ab|--6--7-7-6-7---|
Eb|-----5-5-------|
Tap to rate this tab
 
# A B C D E F G H I J K L M N O P Q R S T U V W X Y Z