Song name
# A B C D E F G H I J K L M N O P Q R S T U V W X Y Z

Cervello - Stay And Bleed tab

Hi! My first tab so please rate :)

Tuning: C# G# C# F# A# D#

Clean guitar
|------------0------------------------0----------------------|
|--------3------3---------3------------------2h3p2p0---------|
|----------4------4-----0---0-----7------7----------2p0------|
|------4------------------------7---7-----7\-----------4p2p0-|
|--2-----------------/5--------------------------------------|
|----------------------------/5------------------------------|

 -----------0------------------------5--------------|
 -------3------3------------------------5-----------|
 ---------4------4---------------7--------7----7\6~-|
 -----4---------------0---0----7---7--------7--7\6~-|
 -2----------------/4---5---------------------------|
 ---------------------------5-----------------------|

http://www.cervelloband.com/
Tap to rate this tab
# A B C D E F G H I J K L M N O P Q R S T U V W X Y Z