Song name
# A B C D E F G H I J K L M N O P Q R S T U V W X Y Z

Cervello - Stay And Bleed tab

-------------------------------------------------------------------------------
                             STAY AND BLEED - Cervello
-------------------------------------------------------------------------------
Tabbed by: Bisse07

It's not 100% accurate I think but it sounds really nice and close to the original 
if you learn it.


Tuning: 1/2 down

e|--------------------0-------------------------------------------------|
B|-------------3-------------3---------------0--------------------------|
G|----------------4-------------4-------/7-----7------------------------|
D|---------4------------------------4---/7------------------------------|
A|--2-------------------------------------------------------------------|
E|----------------------------------------------------2/3---------------|

e|--------------0-------------------------------------------------------|
B|------3--------------3----------2h3p2---------------------------------|
G|--4------4--------------4------------h4p2-----------------------------| <---- FAST PART!
D|-----------------------------------------h4p2p0-----------------------|
A|-----------------------------------------------2----------------------|
E|----------------------------------------------------------------------|

e|-------------0--------------------------------------------------------|
B|------3-------------3-------------------2/3--- LET RING --------------|
G|---------4-------------4----------------------------------------------|
D|--4------------------------4--------0---------0-----------------------|
A|----------------------------------4------4/5--------------------------|
E|----------------------------------------------------3-----------------|

e|--------------5-------------------------------------------------------|
B|------3--------------3----------0----------0--------------------------|
G|--4------4--------------4------7--6------4----------------------------|
D|---------------------------------7--7------4--------------------------|
A|---------------------------------5--0------2--------------------------|
E|----------------------------------------------------------------------|





...everytime I try, it feels so real...

           Alt.1                                 Alt.2
e|------------------------|          e|------------------------|
B|--2h3p2p0---------------|          B|------------------------|
G|---------2--------------|          G|--6h7p6-----------------|
D|------------------------|          D|-------9--7\------------|
A|------------------------|          A|------------------------|
E|------------------------|          E|------------------------|

Alt.2 is a bit harder to play but sounds more like the original since there is a slide in the end


PM me if you would like to improve something!


************************************

| /   slide up
| \   slide down
| h   hammer-on
| p   pull-off
| ~   vibrato
| +   harmonic
| x   Mute note
| b   Bend
| pb  Pre-bend
| br  Bend release
| pbr Pre-bend release
| brb Bend release bend

************************************
Tap to rate this tab
# A B C D E F G H I J K L M N O P Q R S T U V W X Y Z