Song name
# A B C D E F G H I J K L M N O P Q R S T U V W X Y Z

Cesar Franck - Panis Angelicus tab

Panis Angelicus - Cesar Franck (1822-1890)

tabbed by: 

Matthew Ferguson 
email: matthewsferguson@yahoo.com
site: www.thelutherie.net

Comments: This is a fantastic arrangement by Joseph Castle. It works
wonderfully as accompaniment for vocals. However, the melody is
complete and very well done, making for a great solo guitar piece.

 
     E  E  E  E  E  E  E  E     E  S S E  E  E  E  E  E   
E||--0-----------0-----------|---------------------------|
B||--------1-----------3-----|--3----1-1-----------------|
G||-----0-----0-----0-----0--|-----0------0-----0-----0--|
D||--------------3-----3-----|--2------------2-----------|
A||--3-----------------------|---------3-----------3-----|
E||--------------------------|---------------------------|

  E  E  E  E  E  E  E  E     E  S S E  E  E  E  E  E   
--0-----------0-----------|---------------------------|
--------1-----------3-----|--3----1-1-----------------|
-----0-----0-----0-----0--|-----0------0-----0-----0--|
--------------3-----3-----|--2------------2-----------|
--3-----------------------|---------3-----------3-----|
--------------------------|---------------------------|

  E  E  E  E  E  E  E  E     E  E  E  E  E  E  E  E   
--5-----------5-----3-----|--1--------1--1-----0-----|
--------------------------|--------1--------1-----1--|
-----2-----2-----2-----0--|-----2--------2-----0-----|
--3-----3-----3-----2-----|--0-----------------------|
--------------------------|--------------------------|
--------------------------|--------------------------|

  E  E  E  E  E  E  E  E     Q    Q    Q    Q       E  E  E  E  E  E  E  E   
--------------------------|--3-------------------|--0-----------0-----------|
--3--------3--3-----1-----|--0----3----1----0----|--------1-----------3-----|
-----0-----------0-----0--|--0--------------0----|-----0-----0-----0-----0--|
--3-----------3-----2-----|--0--------------3----|--------------3-----3-----|
--------------------------|-------2----0---------|--3-----------------------|
--------3-----------------|-----------------3----|--------------------------|

  E  S S E  E  E  E  E  E     E  E  E  E  E  E  E  E   
---------------------------|--3-----------3-----2-----|
--3----1-1-----------------|--------0-----------------|
-----0------0-----0-----0--|-----0-----0--------2-----|
--2------------2-----------|-----------------1-----1--|
---------3-----------3-----|--------------2-----------|
---------------------------|--0-----------------------|

  E  S S E  E  E  E  E  E     E  E  E  E  E  E  E  E   
-------0-0-----------------|--0-----------------------|
---------------------------|--------1-----3-----------|
-----0------0-----0-----0--|--------------------5-----|
--2------------------------|-----4-----4-----4-----4--|
---------1-----4-----1-----|--0-----------5-----------|
---------------------------|--------------------------|

  E  E  E  E  E  E  E  E     E  E  E  E  E  E  E  E   
--3-----------------------|--5-----------0-----------|
--------------3-----------|-----------3-----------1--|
--------0-----------0-----|--------5--------2-----2--|
-----0-----0-----0-----0--|--0-h-4-------0-----4-----|
--------------2-----------|--------------------------|
--3-----------------------|--------------------------|

  E  E  E  E  E  E  E  E     E  E  E  E  E  E  E  E   
--------------------------|--0-----------------------|
--0-----------------------|--------------0-----------|
--------2--------2-----2--|--------0-----------0-----|
-----1-----1--------1-----|-----2-----2-----2-----2--|
--2-----------2-----------|--------------------------|
--------------------------|--0-----------0-----------|

  E  E  E  E  E  E  E  E     E  E  E  E  E  E  E  E   
--1-----------------------|--2-----3--5--0--------2--|
--------0--3--1-----------|-----1--------------1-----|
-----1--------------2-----|-----------------2--------|
-----------------2-----2--|--0-----------0-----------|
--------------0-----------|--------------------------|
--0-----------------------|--------------------------|

  E  E  E  E  E  E  E  E     Q    E  E  Q    Q       Q    Q    Q    Q     
--3--------------------3--|--2----3--5--0----2----|--3--------------1----|
--------0-----------0-----|--1----------1----3----|--3--------------0----|
-----0-----0-----0--------|--2----------0----2----|--0--------------0----|
--------------------------|--0----------0---------|-----------------0----|
--------------------------|------------------3----|--2----3----4---------|
--3-----------3-----------|-----------------------|----------------------|

  E  E  E  E  E  E  E  E     E  S S E  E  E  E  E  E   
--0-----------0-----------|---------------------------|
--------1-----------3-----|--3----1-1-----------------|
-----0-----0-----0-----0--|-----0------0-----0-----0--|
--------------3-----3-----|--2------------2-----------|
--3-----------------------|---------3-----------3-----|
--------------------------|---------------------------|

  E  E  E  E  E  E  E  E     E  S S E  E  E  E  E  E   
--0-----------0-----------|---------------------------|
--------1-----------3-----|--3----1-1-----------------|
-----0-----0-----0-----0--|-----0------0-----0-----0--|
--------------3-----3-----|--2------------2-----------|
--3-----------------------|---------3-----------3-----|
--------------------------|---------------------------|

  E  E  E  E  E  E  E  E     E  E  E  E  E  E  E  E   
--5-----------5-----3-----|--1--------1--1-----0-----|
--------------------------|--------1--------1-----1--|
-----2-----2-----2-----0--|-----2--------2-----0-----|
--3-----3-----3-----2-----|--0-----------------------|
--------------------------|--------------------------|
--------------------------|--------------------------|

  E  E  E  E  E  E  E  E     E  E  E  E  E  E  E  E   
--------------------------|--3-----------------------|
--3--------3--3-----1-----|--------------------------|
--------2--------2-----2--|-----0-----0-----0-----0--|
-----3--------------------|--------3-----2-----0-----|
--------------------------|--------------------------|
--1-----------1-----2-----|--3-----------------------|

  E  E  E  E  E  E  E  E     E  S S E  E  E  E  E  E   
--3-----------1-----0-----|--0------------------------|
--------0-----------------|--0----3-3-----------------|
--------------------2-----|-----0------0--------2-----|
-----3-----3--0--3-----3--|--3---------------3-----3--|
--------------------------|---------2-----3-----------|
--3-----------------------|---------------------------|

  E  E  E  E  E  E  E  E     E  S S E  E  E  E  E  E   
--3-----------5-----1-----|--0------------------------|
--------0-----------------|--0----3-3--------------1--|
--------------2-----2-----|-----0------0--------2-----|
-----3-----3-----3-----3--|--3---------------3--------|
--------------------------|---------2-----3-----------|
--3-----------------------|---------------------------|

  E  E  E  E  E  E  E  E     E  E  E  E  E  E  E  E   
--3--------------0--------|--1-----------0-----0-----|
--0-----0-----1-----3--1--|--------3--------1-----1--|
--0--0-----0-----0-----0--|-----0-----0--------0-----|
--3-----------2-----2-----|--------------------------|
--------------------------|--2-----------3-----------|
--------------------------|--------------------------|

                                         |-3-|
  E  E  E  E  E  E  E  E     E  E  E  E  S S S E  E  E   
-----------------------0--|-----------------------------|
--------3--1--3-----------|--1-----------1h3p1-0--1--3--|
-----2-----------0-----0--|-----0-----0-----------------|
--3-----------3-----3-----|--------2--------------------|
--------------------------|--3--------------------------|
--------------------------|-----------------------------|

  E  E  E  E  E  E  E  E     E  E  E  E  E  E  E  E     Q    E  E  Q    E  E   
--5--------------1--0-----|--3-----0-----1-----------|----------1--0----------|
--2-----2--------------3--|--------2-----------3-----|-------3----------3--1--|
-----0-----0-----2--0-----|-----2-----2-----2-----2--|-------0-----0----0-----|
--------------0--------3--|--2-----------0-----------|--0---------------2-----|
--0-----------------------|--------------------------|-------2-----3----------|
--------------------------|--------------------------|------------------------|

  E  E  E  E  E  E  E  E      H       H         
-----------------------0--|--(0)--------------||
--3-----------------------|-----------1-------||
-----2-----2--------0-----|-----------0-------||
--3-----3--------3-----3--|--(3)------2-------||
--------------2-----------|-----------3-------||
--------------------------|-------------------||

Lyrics
------

Panis angelicus
Fit panis hominum
Dat panis coelicus
Figuris terminum
O res mirabilis
Manducat Dominum
Pauper, pauper
Servus et humilis
Pauper, pauper
Servus et humilis

Legend
------

H     - half note
Q     - quarter note
E     - 8th note
S     - 16th note
|-3-| - triplet
h     - hammer on
p     - pull off
(0)   - tied note (previous note held)
Tap to rate this tab
# A B C D E F G H I J K L M N O P Q R S T U V W X Y Z