Cesare Cremonini - Il Pagliaccio tab

-Cesare Cremonini
-Il Pagliaccio 
-Riff Iniziale

E|----------------------|
B|----------------------|
G|-------5h7p5----------| X2
D|-------------7-5---5--|
A|--0-0------------7----|
E|----------------------|

E|--------------------------------------------|
B|--------------------------------------------|
G|-------5h7p5--------------------------------|
D|-------------7-5----10-10------5-5-----6-6--|
A|--0-0------------8-8--8-----3-3-3---7-7-7---|
E|--------------------------------------------|


Scusatemi se c' qualche errore ma sono un novizio :)
Tap to rate this tab
 
# A B C D E F G H I J K L M N O P Q R S T U V W X Y Z