Song name
# A B C D E F G H I J K L M N O P Q R S T U V W X Y Z

Cesare Cremonini - Il Pagliaccio tab

Tabbed by Batticulo da Messina

Intro:
-----------------------------------------0-----------------------------|
--1-0---0-1----1-0---0-1------1-0-----0----3--1--0----0--1--0----------|
------2------------2---------------2---------------2----------2--------|
-----------------------------------------------------------------------|
-----------------------------------------------------------------------|
-----------------------------------------------------------------------|

--1-0---0-1----1-0---0-1-----1-0-------------------0-1-3-----------------|
------3-------------3--------------3-1-------0-1-3-----------------------|
-----------------------------------------0-2-----------------------------|
-------------------------------------------------------------------------|
-------------------------------------------------------------------------|
-------------------------------------------------------------------------|

-----------------------------------------0-----------------------------|
--1-0---0-1----1-0---0-1------1-0-----0----3--1--0----0--1--0----------|
------2------------2---------------2---------------2----------2--------|
-----------------------------------------------------------------------|
-----------------------------------------------------------------------|
-----------------------------------------------------------------------|

--1-0---0-1-0-----------------------------0-1-3--------------------------|
------3--------3-1-3-1-0---------0-1-3-----------------------------------|
----------------------------2-0-2----------------------------------------|
-------------------------------------------------------------------------|
-------------------------------------------------------------------------|
-------------------------------------------------------------------------|

Lam Mi Lam Mi Lam Fa Do Mi

Lam Mi Lam Mi
Sono il guardiano del Paradiso
Lam Fa Do Mi
per me si va soltanto se sei stato buono
Lam Mi Lam Mi
sono il pagliaccio e tu il bambino
Lam Fa Do Mi
nel circo ho tutto e vivo solo di quel che sono
Lam Mi Lam Mi
la sera quando mi sciolgo il trucco
Lam Fa Di Mi
riscopro che sono un pagliaccio anche sotto
Fa Do Lam Mi
Ma infondo io sto bene qua tra le mie facce e la mia falsità
Fa Do Mi Lam
ma infondo io sto bene qua trovando in quel che sono Un po' di
        Fa Do Mi Lam
liber-tà Oh no! Non ridere perché
Fa Do Mi lam
lo sai meglio di me
Fa Do Mi Lam
io no! ho più voglia per risponderti
Fa Do Mi Lam
perché sei sei come me

Lam Fa Rem Sol (x2)


Lam Mi Lam Mi
Sono la sfera di un indovino
Lam Fa Do Mi
nei miei disegni è scritto e vedo il tuo futuro
Lam Mi Lam Mi
sono il pagliaccio e tu il bambino
Lam Fa Do Mi
farò pagare caro ad ogni uomo il suo sorriso
Lam Mi Lam Mi
la sera quando mi sciolgo il trucco
Lam Fa Do Mi
riscopro che sono un pagliaccio anche sotto
Lam Mi Lam Mi
e sullo specchio del camerino
Lam Fa Do Mi
mi faccio della stessa droga per cui vivo,la vanità
Fa                       Do         Lam          Mi
ma infondo io sto bene qua tra le reti del mio circo che non va
Fa                       Do         Lam          Mi
ma infondo io sto bene qua trovando in quel che sono un po' di
        Fa Do Mi Lam
liber-tà..Oh No! Non ridere perché
Fa Do Mi Lam
lo sai meglio di me
Fa Do Mi Lam
io no! non ho più voglia per risponderti
Fa Do Mi Lam perché sei,sei come me
- al 4° giro tieni il Mi lungo

conclusione piano:
La Mi La Mi Lam Fa Do Mi
La Mi La Mi Lam Fa Do Mi Lam
Tap to rate this tab
 
# A B C D E F G H I J K L M N O P Q R S T U V W X Y Z