Song name
# A B C D E F G H I J K L M N O P Q R S T U V W X Y Z

Chad Kroeger - Into The Night tab

Into the Night
This covers the acoustic part of the song.
Very easy, Good Beginner Song.

Intro
The intro is slightly different than just strumming. Listen to the song and you'll know 
i mean.

Intro

       Am            C9           G          D
e|-------0------------------------------------------0--|
B|--------------------3------------3--2----3-----3-----|
G|--2-----------0------------0-------------2--2--------|
D|--2-2---------2--2---------0--0----------0-----------|  X2
A|--0-----------3------------2-------------------------|
E|---------------------------3-------------------------|

1st Verse

        Am           C             G          D
e|------0------------0-------------3----------2--------|
B|------1------------1-------------3----------3--------|
G|------2------------0-------------0----------2--------|
D|------2------------2-------------0----------0--------|  X2
A|------0------------3-------------2----------0--------|
E|------X------------X-------------3----------X--------|

Pre-Chorus

       Am           C            G             D
e|--0--0---0-----0--0---0-----3--3---3-----2--2---2----|
B|--1--1---1-----1--1---1-----3--3---3-----3--3---3----|
G|--2--2---2-----0--0---0-----0--0---0-----2--2---2----|
D|--2--2---2-----2--2---2-----0--0---0-----0--0---0----|
A|--0--0---0-----3--3---3-----2--2---2-----0--0---0----|
E|--X--X---X-----X--X---X-----3--3---3-----X--X---X----|

Chorus

               Am                     C
e|--------0--0-0--0-0-0---------0--0-0--0-0-0---------|
B|--------1--1-1--1-1-1---------1--1-1--1-1-1---------|
G|--------2--2-2--2-2-2---------0--0-0--0-0-0---------|
D|--------2--2-2--2-2-2---------2--2-2--2-2-2---------|
A|--------0--0-0--0-0-0---------3--3-3--3-3-3---------|
E|--------X--X-X--X-X-X---------X--X-X--X-X-X---------|


                G                    D
e|--------3--3-3--3-3-3----------2--2-2--2-2-2--------|
B|--------3--3-3--3-3-3----------3--3-3--3-3-3--------|
G|--------0--0-0--0-0-0----------2--2-2--2-2-2--------|
D|--------0--0-0--0-0-0----------0--0-0--0-0-0--------|  X3
A|--------2--2-2--2-2-2----------0--0-0--0-0-0--------|
E|--------3--3-3--3-3-3----------X--X-X--X-X-X--------|


2nd Verse

        Am           C             G          D
e|------0------------0-------------3----------2--------|
B|------1------------1-------------3----------3--------|
G|------2------------0-------------0----------2--------|
D|------2------------2-------------0----------0--------|  X2
A|------0------------3-------------2----------0--------|
E|------X------------X-------------3----------X--------|

Pre-Chorus

       Am           C            G             D
e|--0--0---0-----0--0---0-----3--3---3-----2--2---2----|
B|--1--1---1-----1--1---1-----3--3---3-----3--3---3----|
G|--2--2---2-----0--0---0-----0--0---0-----2--2---2----|
D|--2--2---2-----2--2---2-----0--0---0-----0--0---0----|
A|--0--0---0-----3--3---3-----2--2---2-----0--0---0----|
E|--X--X---X-----X--X---X-----3--3---3-----X--X---X----|


Chorus

               Am                     C
e|--------0--0-0--0-0-0---------0--0-0--0-0-0---------|
B|--------1--1-1--1-1-1---------1--1-1--1-1-1---------|
G|--------2--2-2--2-2-2---------0--0-0--0-0-0---------|
D|--------2--2-2--2-2-2---------2--2-2--2-2-2---------|
A|--------0--0-0--0-0-0---------3--3-3--3-3-3---------|
E|--------X--X-X--X-X-X---------X--X-X--X-X-X---------|


                G                    D
e|--------3--3-3--3-3-3----------2--2-2--2-2-2--------|
B|--------3--3-3--3-3-3----------3--3-3--3-3-3--------|
G|--------0--0-0--0-0-0----------2--2-2--2-2-2--------|
D|--------0--0-0--0-0-0----------0--0-0--0-0-0--------|  X4
A|--------2--2-2--2-2-2----------0--0-0--0-0-0--------|
E|--------3--3-3--3-3-3----------X--X-X--X-X-X--------|

Santana's Solo (repeat chorus)

               Am                     C
e|--------0--0-0--0-0-0---------0--0-0--0-0-0---------|
B|--------1--1-1--1-1-1---------1--1-1--1-1-1---------|
G|--------2--2-2--2-2-2---------0--0-0--0-0-0---------|
D|--------2--2-2--2-2-2---------2--2-2--2-2-2---------|
A|--------0--0-0--0-0-0---------3--3-3--3-3-3---------|
E|--------X--X-X--X-X-X---------X--X-X--X-X-X---------|


                G                    D
e|--------3--3-3--3-3-3----------2--2-2--2-2-2--------|
B|--------3--3-3--3-3-3----------3--3-3--3-3-3--------|
G|--------0--0-0--0-0-0----------2--2-2--2-2-2--------|
D|--------0--0-0--0-0-0----------0--0-0--0-0-0--------|  X4
A|--------2--2-2--2-2-2----------0--0-0--0-0-0--------|
E|--------3--3-3--3-3-3----------X--X-X--X-X-X--------|

After Solo

2 bar Pause...

       Am            C9           G          D
e|-------0------------------------------------------0--|
B|--------------------3------------3--2----3-----3-----|
G|--2-----------0------------0-------------2--2--------|
D|--2-2---------2--2---------0--0----------0-----------|  X2
A|--0-----------3------------2-------------------------|
E|---------------------------3-------------------------|

Chorus

               Am                     C
e|--------0--0-0--0-0-0---------0--0-0--0-0-0---------|
B|--------1--1-1--1-1-1---------1--1-1--1-1-1---------|
G|--------2--2-2--2-2-2---------0--0-0--0-0-0---------|
D|--------2--2-2--2-2-2---------2--2-2--2-2-2---------|
A|--------0--0-0--0-0-0---------3--3-3--3-3-3---------|
E|--------X--X-X--X-X-X---------X--X-X--X-X-X---------|


                G                    D
e|--------3--3-3--3-3-3----------2--2-2--2-2-2--------|
B|--------3--3-3--3-3-3----------3--3-3--3-3-3--------|
G|--------0--0-0--0-0-0----------2--2-2--2-2-2--------|
D|--------0--0-0--0-0-0----------0--0-0--0-0-0--------|  X4
A|--------2--2-2--2-2-2----------0--0-0--0-0-0--------|
E|--------3--3-3--3-3-3----------X--X-X--X-X-X--------|

Ends With Chad Singing and Santana Playing...

Thanks. Stickx N Pickx
By The Way this is my first tab so there might be some errors.
Tap to rate this tab
# A B C D E F G H I J K L M N O P Q R S T U V W X Y Z