Song name
# A B C D E F G H I J K L M N O P Q R S T U V W X Y Z

Chad Kroeger - Hero tab

Help us improve GuitareTab! Take a short survey!
Hero
Chad Kroeger

Verse:
      gm       em        gm       em     
E-----4---------0---------4--------0---------
B-----4---------0---------4--------0---------
G-----4---------X---------4--------X---------
D-----6---------2---------6--------2---------
A-----6---------2---------6--------2---------
E-----4---------0---------4--------0---------

Pre-chorus 
      G          A        Em
E-----3----------0--------0----
B-----0----------2--------0----
G-----0----------2--------X----
D-----0----------2--------2----
A-----2----------0--------2----
E-----3----------0--------0----
                     (palm mute)
Chorus

This part can be done in 2 ways. You can do it like this:
      G      A      B
E-----3------0------2--------- X2
B-----0------2------4---------
G-----0------2------4---------
D-----0------2------4---------
A-----2------0------2---------
E-----3------0------2---------

or bar it the way up like this:
      G      A      B
E-----3------5------7--------- X2
B-----5------7------9---------
G-----5------7------9---------
D-----4------6------8---------
A-----3------5------7---------
E-----3------5------7---------

Solo and Interlude:

E---------------------------------------------------------------------------------------
B---------------------------------------------------------------------------------------
G---------------------------------------------------------------------------------------
D---------------------------------------------------------------------------------------
A----545454-------545454------------------------979797-------979797---------------------
E----------5------------5------777-------999----------10------------9----7-7-7-10-10-10-

                     play on top strings softly:
E-----------------------3-------5-------7-----X2 then back to the chorus ---------------
B-----------------------3-------5-------7-----------------------------------------------
G-----------------------4-------6-------8-----------------------------------------------
D----------------Z----------------------------------------------------------------------
A---------------------------------------------------------------------------------------
E---12-12-12-----------------------------------------------------------------------------
Related for Hero tab