Song name
# A B C D E F G H I J K L M N O P Q R S T U V W X Y Z

Chad Smiths Bombastic Meatbats - The Battle For Ventura Blvd tab

Verse
  C#m   F#   A   B   C#m
E|-4--|----|--------|-4--|
B|-5--|-2--|-5---7--|-5--|
G|-6--|-3--|-6---8--|-6--|
D|----|-4--|-7---9--|----|
A|----|----|--------|----|
E|----|----|--------|----|

Chorus
  C#         C#m       Em        Bm         Dm       Am      Em
E|--------------------------------------------------------------|
B|-6---6-7-9-9---10-12-12---10-8-7---7-8-10-10---8-6-5----------|
G|*------------------------------------------------------7-5-4-*|
D|*------------------------------------------------------------*|
A|--------------------------------------------------------------|
E|--------------------------------------------------------------|

Break
E|------------------------------------------|-----------------|-----------------|
B|------------------------------------------|-----------------|-----------------|
G|-*-6-4---4--------------------------------|-----------------|-----------------|
D|-------6---6-4-2-4-2-3~~-2----------------|-----------------|------------2~~--|
A|---------------------------4-2---2~~-4----|-------2~~-4-----|-----2~~-4-------|
E|-------------------------------4----------|-4---4-----------|-4-4-------------|
Tap to rate this tab
# A B C D E F G H I J K L M N O P Q R S T U V W X Y Z