Song name
# A B C D E F G H I J K L M N O P Q R S T U V W X Y Z

Chad Valley - Shell Suite tab

E|--12--14--17--12--14------12------|
B|----------------------14----------|
G|------------------------------14--|
D|----------------------------------|
A|----------------------------------|
E|----------------------------------|
    ♪    ♪   ♪   ♪   ♪   ♪   ♪   ♪

E|--12--14--17--12--14------12------|
B|----------------------14----------|
G|------------------------------14--|
D|----------------------------------|
A|----------------------------------|
E|----------------------------------|
    ♪    ♪   ♪   ♪   ♪   ♪   ♪   ♪
Tap to rate this tab
# A B C D E F G H I J K L M N O P Q R S T U V W X Y Z