Song name
# A B C D E F G H I J K L M N O P Q R S T U V W X Y Z

Chad Van Herk - Leavin Footprints tab

Footprints by Chad Van Herk

I couldnt believe this song wasn't already up there so I had a make the tab myself.

This part basically repeats throughout the whole song... hope you enjoy

s=slide
x=slap/mute
h=hammer on

e|----3--3--x--3--3--3---------5--5--x--5--5--5----------1--1--x--1--1--1----
B|----5--5--x--5--5--5---------5--5--x--5--5--5----------1--1--x--1--1--1----
G|----5--5--x--5--5--5---------5--5--x--5--5--5----------2--2--x--2--2--2----
D|----5--5--x--5--5--5---------7--7--x--7--7--7----------3--3--x--3--3--3----
A|----3--3--x--3--3--3---------7--7--x--7--7--7----------3--3--x--3--3--3----
E|----3--3--x--3--3--3--3s4s5--5--5--x--5--5--5--0--0h1--1--1--x--1--1--1----
      C                        A                         F

-------3--3--x--3--3--3----------|r
-------3--3--x--3--3--3----------|e
-------4--4--x--4--4--4----------|p
-------5--5--x--5--5--5----------|e
-------5--5--x--5--5--5--0--0h3--|a
0-0h3--3--3--x--3--3--3----------|t
       G

http://www.chadvanherk.com/
Tap to rate this tab
# A B C D E F G H I J K L M N O P Q R S T U V W X Y Z