Song name
# A B C D E F G H I J K L M N O P Q R S T U V W X Y Z

Chad Vangaalen - Willow Tree tab

-------------------------------------------------------------------------------
			     WILLOW TREE - Chad Vangaalen
-------------------------------------------------------------------------------
Tabbed by: McAvro

Capo on 1st.


Intro and pre-chorus.

    G           C                       G
e|-------3--2-----0-----0-----0--3--0----------------|
B|----0--------------3------------3----3--0--3--0----|
G|-------------0-----------0-----------------------0-|
D|---------------------------------------------------|
A|--------------3--3--3--3--3--3--3--3---------------|
E|--3--3--3--3--------------------------3--3--3--3---|


Verse

    G           C                       G
e|-------3--2-----0-----0-----0-----0----------------|
B|----0--------------3-----------3--------0--3--0----|
G|-------------0-----------0-----------0-----------0-|
D|---------------------------------------------------|
A|--------------3--3--3--3--3--3--3--3---------------|
E|--3--3--3--3--------------------------3--3--3--3---|


Chorus

    D                       C
e|----2-----2-----2-----2-----0-----0----0--0---------|
B|-------3-----------3-----------3---------3--30----0-|
G|-------------2-----------2-----------0----------0---|
D|--0--0--0--0--0--0--0--0----------------------------| X3
A|--------------------------3--3--3--3----------------|
E|----------------------------------------------------|

    D                       C
e|----2-----2-----2-----2-----0-----0----0--0--------|
B|-------3-----------3-----------3---------3--30-----|
G|-------------2-----------2-----------0---------20--|
D|--0--0--0--0--0--0--0--0---------------------------| 
A|--------------------------3--3--3--3---------------|
E|---------------------------------------------------|


(Verse 1)
G         C
Sleep all day
                      G
Just waiting for the sun to set
           C
I hang my clothes
          G
Up on the line

G      C
When I die
                             G
I'll hang my head beside the willow tree
         C
When I'm dead
        G
Is when I'll be free

(Chorus)
D                    C
And you can take my body
C
Put it in a boat
D             C
Light it on fire
C
You can use the kerosene

D        C
Take my body
C
Put it in a boat
D             C
Light it on fire
C
Send it out to sea 

Ooh ooh ooh     X2 (play intro)

Yeah Yeah Yeah  X2 

(Verse 2)
G         C
Sleep all day
                      G
Just waiting for the sun to set
           C
I hang my clothes
          G
Up on the line

G      C
When I die
                             G
I'll hang my head beside the willow tree
         C
When I'm dead
        G
Is when I'll be free

(Chorus)
D                    C
So you can take my body
C
Put it in a boat
D             C
Light it on fire
C
You can use the gasoline

D        C
Take my body
C
Put it in a boat
D             C
Light it on fire
C                G
Send it out to sea 

(End on slow strum of G)
Tap to rate this tab
 
# A B C D E F G H I J K L M N O P Q R S T U V W X Y Z