Song name
# A B C D E F G H I J K L M N O P Q R S T U V W X Y Z

Chad Vangaalen - City Of Electric Light tab

Chad Vangaalen -City Of Electric Light

Tabbed by: Jordan Parsons
E-mail: moonlapse88@hotmail.com


Standard tuning.


Even though a simple song, pretty much every tab on the interwebz is wrong so here's the
right way .....All chords are 3 finger "power chords." At varies in the original
recording with over dubs and the such. Full chords don't sit right, so the actual way 
using the power chords is the way to go.

Chad's an excellent canadian singer-songwriter with indie flare. I hope you enjoy this tab!

R1: (Beginning of verses

e|---------------------------------------------------------------------------|
B|-------0---1---0-----------------------------------------------------------|
G|----2---------------2----0-------------------------------------------------|
D|---------------------------------------------------------------------------|
A|---------------------------------------------------------------------------|
E|---------------------------------------------------------------------------|


(bridge picking)

R1

e|---------------------------------------------------------------------------|
B|---------------------------------------------------------------------------|
G|----2-----0-----2----------------------------------------------------------|
D|-----------------------3-----0---------------------------------------------|
A|---------------------------------------------------------------------------|
E|---------------------------------------------------------------------------|


R2

e|---------------------------------------------------------------------------|
B|---------------------------------------------------------------------------|
G|----2-----0-----2------------0---------------------------------------------|
D|-----------------------3---------------------------------------------------|
A|---------------------------------------------------------------------------|
E|---------------------------------------------------------------------------|



      R1                   A          G
And I thought you were the moon in the sky,
       R1                  A      G
but it turned out you were just a streetlight.
         R1             A           G
You were burning like a hole in the night.
         R1             F       C        G
You were burning like a city of electric light.

R1                         A           G
And I thought you were the moon in the skies,
R1                         A              G
but it turned out you were just a pair of eyes.
R1                       A               G
You were lurking like a creature in the night.
R1                       F       C       G
You were looking like a city of electric light.

R2
Hanging by your feet.
R3
Hanging in your sleep.
R2
Hanging in a dream.

F C F C

R2
We connect the stars,
R3
every single one,
R2
hanging like the sun.

F C F C

R1                         A           G
And I thought you were the moon in the sky,
R1                         A      G
but it turned out you were just a streetlight.
R1                      A           G
You were burning like a hole in the night.
R1                      F       C        G
You were burning like a city of electric light.
Tap to rate this tab
# A B C D E F G H I J K L M N O P Q R S T U V W X Y Z