Guitaretab - guitar tabs
Song name
# A B C D E F G H I J K L M N O P Q R S T U V W X Y Z

Chad Vangaalen - Kill Me In My Sleep tab

Intro: Repeat 3x

e-------------------------------------------------------------------|
B---------------------------------------------3---------------------|
G-------6-----6-----6-----6-----6-------4-----------4-----4-----4---|
D-------------------------------------------------------------------|
A---5-5---5-5---5-5---5-5---5-5---5-2-2---2-2---2-2---2-2---2-2---2-|
E-------------------------------------------------------------------|

e-------------------------------------------------------------------|
B-------------------------------------------3-----------------------|
G-------6---6-----6-----6-----6---6-----4---------4-----4-----4-----|
D-------------------------------------------------------------------|
A---5-5---5---5-5---5-5---5-5---5---2-2---2---2-2---2-2---2-2---2---|
E-------------------------------------------------------------------|

Verse 1:

e-------------------------------------------------------------------|
B---------------------------------------------3---------------------|
G-------6-----6-----6-----6-----6-------4-----------4-----4-----4---|
D-------------------------------------------------------------------|
A---5-5---5-5---5-5---5-5---5-5---5-2-2---2-2---2-2---2-2---2-2---2-|
E-------------------------------------------------------------------|
        You're gonna kill me in my sleep.

e-------------------------------------------------------------------|
B-------------------------------------------3-----------------------|
G-------6-----6-----6-----6-----6-------4---------4-----4-----4-----|
D-------------------------------------------------------------------|
A---5-5---5-5---5-5---5-5---5-5---5-2-2---2---2-2---2-2---2-2---2---|
E-------------------------------------------------------------------|
        You'll hold me down so I can't move.

e-------------------------------------------------------------------|
B---------------------------------------------3---------------------|
G-------6-----6-----6-----6-----6-------4-----------4-----4-----4---|
D-------------------------------------------------------------------|
A---5-5---5-5---5-5---5-5---5-5---5-2-2---2-2---2-2---2-2---2-2---2-|
E-------------------------------------------------------------------|
        You'll press the pillow to my face.

e-------------------------------------------------------------------|
B-------------------------------------------3-----------------------|
G-------6-----6-----6-----6-----6-------4---------4-----4-----4-----|
D-------------------------------------------------------------------|
A---5-5---5-5---5-5---5-5---5-5---5-2-2---2---2-2---2-2---2-2---2---|
E-------------------------------------------------------------------|
        And hold it down so I can't breathe.

Chorus:

e--------X-----------X--------|
B--------X-----------X--------|
G------3-X---3---3---X--------|
D------3-X---3---3---X--5~~~~-|
A---1~-1-X---1---1---X--5~~~~-|
E---0~---X-----------X--3~~~~-|
       Sleep creepin' around.
       Night stalkin' all around.

e--------X-----------X-------------------------------|
B--------X-----------X---------------------------8~~-|
G------3-X---3---3---X--------------------6--6-------|
D------3-X---3---3---X--5~~~~------------7--7--7-----|
A---1~-1-X---1---1---X--5~~~~-----------5--5---------|
E---0~---X-----------X--3~~~~------------------------|
       You've got it down yeah don't you.
[ Tab from: http://www.guitaretab.com/c/chad-vangaalen/77834.html ]
e--------X-----------X--------|
B--------X-----------X--------|
G------3-X---3---3---X--------|
D------3-X---3---3---X--5~~~~-|
A---1~-1-X---1---1---X--5~~~~-|
E---0~---X-----------X--3~~~~-|
       Night stalkin' around.
       Sleep creepin' all around.

e--------X-----------X-------------------------------|
B--------X-----------X---------------------------8~~-|
G------3-X---3---3---X--------------------6--6-------|
D------3-X---3---3---X--5~~~~------------7--7--7-----|
A---1~-1-X---1---1---X--5~~~~-----------5--5---------|
E---0~---X-----------X--3~~~~------------------------|
       You've got it down yeah don't you.

Verse 2:

e-------------------------------------------------------------------|
B---------------------------------------------3---------------------|
G-------6-----6-----6-----6-----6-------4-----------4-----4-----4---|
D-------------------------------------------------------------------|
A---5-5---5-5---5-5---5-5---5-5---5-2-2---2-2---2-2---2-2---2-2---2-|
E-------------------------------------------------------------------|
        You're gonna kill me in my sleep.

e-------------------------------------------------------------------|
B-------------------------------------------3-----------------------|
G-------6-----6-----6-----6-----6-------4---------4-----4-----4-----|
D-------------------------------------------------------------------|
A---5-5---5-5---5-5---5-5---5-5---5-2-2---2---2-2---2-2---2-2---2---|
E-------------------------------------------------------------------|
        You'll slit my throat and drain my blood.

e-------------------------------------------------------------------|
B---------------------------------------------3---------------------|
G-------6-----6-----6-----6-----6-------4-----------4-----4-----4---|
D-------------------------------------------------------------------|
A---5-5---5-5---5-5---5-5---5-5---5-2-2---2-2---2-2---2-2---2-2---2-|
E-------------------------------------------------------------------|
        You'll step back and watch me bleed.

e-------------------------------------------------------------------|
B-------------------------------------------3-----------------------|
G-------6-----6-----6-----6-----6-------4---------4-----4-----4-----|
D-------------------------------------------------------------------|
A---5-5---5-5---5-5---5-5---5-5---5-2-2---2---2-2---2-2---2-2---2---|
E-------------------------------------------------------------------|
        And then you'll make a clean escape.

Main Ending: Repeat 2x

e-------------------------------------------------------------------|
B---------------------------------------------3---------------------|
G-------6-----6-----6-----6-----6-------4-----------4-----4-----4---|
D-------------------------------------------------------------------|
A---5-5---5-5---5-5---5-5---5-5---5-2-2---2-2---2-2---2-2---2-2---2-|
E-------------------------------------------------------------------|

e-------------------------------------------------------------------|
B-------------------------------------------3-----------------------|
G-------6---6-----6-----6-----6---6-----4---------4-----4-----4-----|
D-------------------------------------------------------------------|
A---5-5---5---5-5---5-5---5-5---5---2-2---2---2-2---2-2---2-2---2---|
E-------------------------------------------------------------------|

This is the main part of the song. The rest of the song is composed of noises that I 
know how to make. -Evan
Related for Kill Me In My Sleep tab
Advertisement will be closed in 10 seconds