Song name
# A B C D E F G H I J K L M N O P Q R S T U V W X Y Z

Chadwick Stokes - Crowbar Hotel chords

Highlighted       Show chord diagrams
Chadwick Stokes
Crowbar Hotel
Simmerkane II
Tabbed By Roscoe Snow
I have not found any tabs for this amazing song so I figured I would throw down my
version which I believe to be very accurate to what
 Chetro plays live. Enjoy!

Tuning
Eb Ab Db Gb Bb Eb

Intro
--7---|
--7---|
--7---|
--9---|
--9---|
--7---|
  Bm

Verse
I wish that I...
--7--12--9---|
--7--14--10--|
--7--14--11--|x4
--9--14--11--|
--9--12--9---|
--7----------|
  Bm  A  F#m

(Pre-Chorus)
Yeah, but I'd rather...
--7--7--9----|
--7--9--10---|
--7--9--11---|x2
--9--9--11---|
--9--7--9----|
--7----------|
  Bm  E  F#m

I'd rather get a kiss...
--7--7--9---5--7---|
--7--9--10--7--9---|
--7--9--11--7--9---|
--9--9--11--7--9---|
--9--7--9---5--7---|
--7----------------|
  Bm E  F#m D  E

2nd Verse
--7--12--9----|
--7--14--10---|
--7--14--11---|x4 (3rd time rhythm is slightly different)
--9--14--11---|
--9--12--9----|
--7-----------|
 Bm  A   F#m

Pre-Chorus
--7--7--9----|
--7--9--10---|
--7--9--11---|x2
--9--9--11---|
--9--7--9----|
--7----------|
 Bm  E  F#m

--7--7--9---5--7---|
--7--9--10--7--9---|
--7--9--11--7--9---|
--9--9--11--7--9---|(hold E)
--9--7--9---5--7---|
--7----------------|
 Bm  E  F#m D  E

Chorus
(We are sold...)
--5--5--7--5---|
--7--5--9--7---|
--7--6--9--7---|x2
--7--7--9--7---|
--5--7--7--5---|
-----5---------|
  D  A  E  D
That is the song the parts are simple to figure out
Intro
Verse
Pre-Chorus
Verse
Pre-Chorus
Chorus
Verse
Pre-Chorus
Chorus
Outro(Verse chords)

http://www.chadwickstokes.com/
Tap to rate this tab
 
# A B C D E F G H I J K L M N O P Q R S T U V W X Y Z