Song name
# A B C D E F G H I J K L M N O P Q R S T U V W X Y Z

Chained Youth - Road To Nowhere tab

Chained Youth
Road To Nowhere
Music and Lyrics Written by: ZeR0 & sIxp0int

Verse

Guitar 1
E---------------------------------------------------------|
B--3-3-5-5-5-5---3-3-5-5-5-5---3-3-5-5-5-5---1-1-1-2------|
G---------------------------------------------------------|
D---------------------------------------------------------|
A---------------------------------------------------------|
E---------------------------------------------------------|

Guitar 2

Chords

C  1XX23X  D 232XXX

E--------------|
B-0-0-1-1-1----|
G--------------|
D--------------|
A--------------|
E--------------|


Chorus

Guitar 1 & 2

E-----------------------------------------------------------------------|
B-----------------------------------------------------------------------|
G-------------------------------------------------|                X  2-|
D--2--2-----------------------------------------------------------------|
A--2--2---2-2-2-2-2-2------4-4-4-4---5-5-5-5----------------------------|
E----------3-3-3-3-3-3-------2-2-2-2---3-3-3-3--------------------------|


Solo

Guitar 2

E---------------------------------------------------------------------------------------|
B--^3-3-3-0------------------1-0-1-0-1-0-1-3--3-3-0-------------------------------------|
G------------3-0-2-^3-3-3-0-------------------------3-0-2----2-0------------------------|
D------------------------------------------------------------0--------|            X  2-|
A---------------------------------------------------------------------------------------|
E---------------------------------------------------------------------------------------|

While Guitar 2 is playing solo Guitar 1 is playing the verse regularly.
Tap to rate this tab
# A B C D E F G H I J K L M N O P Q R S T U V W X Y Z