Guitaretab - guitar tabs
Song name
# A B C D E F G H I J K L M N O P Q R S T U V W X Y Z

Chainsaw - Smell The Saw tab

Band:  MANOWAR
Album: SMELL THE SAW
Song:  THE BUTCHER OF BAGHDAD

Copyright (c)  WORLD CHAOS RECORDS
Version 1.0 - 2007-07-18

Transcribed By: SMETSAR
Email:          SMETSAR@HOTMAIL.COM


.  - palm mute           /  - slide up to
\  - slide down to       ~  - vibrato
h  - hammer on           b  - Bend
p  - pull off            Suffixes for bend
t  - tap                 f  - full bend    h - half bend
ph - pinched harmonic    q  - quarter bend t - tap bend
*  - see comment         ^  - Hold bend    r release bend
x  - Stuccatto           ~  - vibrato bend
,  - slight palm mute    () - ghost note, sustained note
"  - tremolo note        <> - Trill

This is the best song from the Dutch Thrash Metal band Chainsaw.
Enjoy it!

INTRO:  X2
d|---------------------------------------------------------------------|
A|---------------------------------------------------------------------|
F|------9-11-9-8---------------9-11-9-8-----8--------------------------|
C|-9-------------10--9----9-------------10----10p910p9-7--------------|
G|-7----------------------7--------------------------------------------|
D|-0----------------------0--------------------------------------------|

d|---------------------------------------------------------------------|
A|---------------------------------------------------------------------|
F|------9-11-9-8-------------------------------------------------------|
C|-9-------------10--9----10---10-12-10-9------------------------------|
G|-7----------------------10--------------10---------------------------|
D|-0-----------------------8-------------------------------------------|

  first ending:					      second ending:
d|-----------------                       ----------------|
A|-----------------                       ----------------|
F|-----------------                       ----------------|
C|-----------------                      -----------------|
G|-12p10-9-10p9-7--                       -12p10-97------|
D|-----------------                       ----------------|

FILL 1:
d|---------------------------------------------------------------------|
A|---------------------------------------------------------------------|
F|---------------------------------------------------------------------|
C|---------------------------------------------------------------------|
G|-77777777777777777777777777777777------------------------------------|
D|---------------------------------------------------------------------|
   ................................

RIFF 1:  X2
d|---------------------------------------------------------------------|
A|-9h10-9h10-9h10--10p9---------9h10-9h10--10p9------12----------------|
F|----------------------10p9--------------------10p9-------------------|
C|---------------------------------------------------------------------|
G|---------------------------------------------------------------------|
D|---------------------------------------------------------------------|

d|---------------------------------------------------------------------|
A|-9h10-9h10-9h10--10p9---------9h10-9h10-12p10-9----------------------|
F|----------------------10p9----------------------10-9-----------------|
C|---------------------------------------------------------------------|
G|---------------------------------------------------------------------|
D|---------------------------------------------------------------------|

RIFF 2:  X4
d|---------------------------------------------------------------------|
A|---------------------------------------------------------------------|
F|---------------------------------------------------------------------|
C|-----9-9-9------9-9-9------7-7-7------7-7-7--------------------------|
G|-7-7-7-7-7--7-7-7-7-7--5-5-5-5-5--5-5-5-5-5--------------------------|
D|---------------------------------------------------------------------|
   . .        . .        . .        . .

RIFF 3:							       FILL 2:
d|-------------------            	     		---------------|
A|-------------------            	     		---------------|
F|------7---------7--            	     		---------------|
C|-9----7----9----7--            	     		---------------|
G|-7----5----7----5--            	     		-55555555------|
D|-0---------0-------            	     		---------------|
							 ........
RIFF 4:  X4
d|---------------------------------------------------------------------|
A|----------10p9------10p9----------------10p9------12p10-9------------|
F|---------------10p9------10p9----------------10p9---------10---------|
C|-9-----------------------------7-------------------------------------|
G|-7-777777----------------------5-555555------------------------------|
D|---------------------------------------------------------------------|
     ......                        ......

[ Tab from: http://www.guitaretab.com/c/chainsaw/93176.html ]
RIFF 5:  X2
d|---------------------------------------------------------------------|
A|-------------10p9-12p10-9--------------------------------------------|
F|-7---9---10---------------10-9h10----7---9---10--9-10----------------|
C|---0---0-------------------------------0---0-----7--8----------------|
G|---------------------------------------------------------------------|
D|---------------------------------------------------------------------|
     .   .                               .   .
d|---------------------------------------------------------------------|
A|-------------10p9-12p10-9--------------------------------------------|
F|-7---9---10---------------10-9h10----7---9---10----------------------|
C|---0---0-------------------------------0---0-------------------------|
G|---------------------------------------------------------------------|
D|---------------------------------------------------------------------|
     .   .                               .   .
  first ending:					      second ending:
d|--------------------------           		      --------------|
A|--------------------------           		      --------------|
F|--------------------------           		      -9--7---------|
C|--------------------------           		      -9--7---------|
G|-13-13-12-12-11-11-10-10--           		      --------------|
D|--------------------------           		      --------------|
   .  .  .  .  .  .  .  .
BRIDGE:
d|---------------------------------------------------------------------|
A|---------------------------------------------------------------------|
F|---------------------------------------------------------------------|
C|-9--99-10-9--10--99-10-9--9--99-10-9-12-10-9-10p9-7------------------|
G|-7-----------10-----------9------------------------------------------|
D|-0------------8-----------7------------------------------------------|

d|---------------------------------------------------------------------|
A|---------------------------------------------------------------------|
F|---------------------------------------------------------------------|
C|-9--99-10-9--10--99-10-9--9--99-10-9---------------------------------|
G|-7-----------10-----------9----------10--12-10-----------------------|
D|-0------------8-----------7------------------------------------------|

d|---------------------------------------------------------------------|
A|---------------------------------------------------------------------|
F|---------------------------------------------------------------------|
C|-10--9-10-12-10-9-10-9h10p9-7--9-------------------------------------|
G|-10----------------------------9--9--10-9----------------------------|
D|--8----------------------------7-------------------------------------|

d|---------------------------------------------------------------------|
A|---------------------------------------------------------------------|
F|----------------------------------5--7--9----------------------------|
C|-10--9-10-12-10-9-10-9h10p9-7--9--5--5--9----------------------------|
G|-10----------------------------9--3--5--7----------------------------|
D|--8----------------------------7-------------------------------------|

FILL 1
RIFF 1: X2

SOLO:
d|---------------------------------------------------------------------|
A|------9-10-10br-9---------9-10-12-13-12-10-9-10-12-10-9--------------|
F|-9-10-------------10-9----------------------------------10-9---------|
C|---------------------------------------------------------------------|
G|---------------------------------------------------------------------|
D|---------------------------------------------------------------------|

d|---------------------------------------------------------------------|
A|------9-10-10br-9---------9-10-10br--9-10-12br--13-12-10-9-----------|
F|-9-10-------------10-9-------------------------------------10-9------|
C|---------------------------------------------------------------------|
G|---------------------------------------------------------------------|
D|---------------------------------------------------------------------|

d|---------------------------------------------------------------------|
A|------9-10-10br-9----------------------------------------------------|
F|-9-10-------------10-99-1010-99-1010-99-1010-1212-10-10--------------|
C|---------------------------------------------------------------------|
G|---------------------------------------------------------------------|
D|---------------------------------------------------------------------|
                       .. . .  .. . .  .. . .  . .  .  .
d|---------------------------------------------------------------------|
A|-9-10-10br-9-10-10br-13p9-12p9-13p9-12p9-13p9-12p9-13p9-12p9---------|
F|---------------------------------------------------------------------|
C|---------------------------------------------------------------------|
G|---------------------------------------------------------------------|
D|---------------------------------------------------------------------|

d|---------------------------------------------------------------------|
A|------9-10-10br-9----------------------9p6-10p6-9p6-10p6-------------|
F|-9-10-------------10-9p7-10p7-9p7-10p7-------------------------------|
C|---------------------------------------------------------------------|
G|---------------------------------------------------------------------|
D|---------------------------------------------------------------------|

d|---------------------------------------------------------------------|
A|-9-10-10br-9-10-10br-13p9-12p9-13p9-12p9-13p9-12p9-13p9-12p9---------|
F|---------------------------------------------------------------------|
C|---------------------------------------------------------------------|
G|---------------------------------------------------------------------|
D|---------------------------------------------------------------------|

d|---------------------------------------------------------------------|
A|---------------------------------------------------------------------|
F|-9----7--------------------------------------------------------------|
C|---------------------------------------------------------------------|
G|---------------------------------------------------------------------|
D|---------------------------------------------------------------------|

RIFF 4: X4

OUTRO: X5
d|---------------------------------------------------------------------|
A|------9-10-12-10-9---------------------------------------------------|
F|-9-10--------------10-9----------------------------------------------|
C|---------------------------------------------------------------------|
G|---------------------------------------------------------------------|
D|---------------------------------------------------------------------|

www.chainsaw.nl