Song name
# A B C D E F G H I J K L M N O P Q R S T U V W X Y Z

Chairlift - Sidewalk Safari tab

Song: Sidewalk Safari
Artist: Chairlift
Tabbed by: L.A Rai

Verses: (palm muted,add the G note every so often)

E------------------------------------------|
B------------------------------------------|
G------------------------------------------|
D-4-4-0-2-4-4--4-4-0-2-5-4-----------------|
A------------------------------------------|
E------------------------------------------|

Chorus:

E-------------------------|
B-7-----------------------|
G-7--11--9----------------|
D-7--11--9----------------|
A-5--9---7----------------|
E-------------------------|

Play during synth parts:

E-------------------------|
B-------------------------|
G-5-7-0-0--5-7-9-4--------|
D-5-7-2-2--5-7-9-4--------|
A-3-5-2-2--3-5-7-2--------|
E-----0-0-----------------|

"I'm bad with bows and arrows..."

E--16--9--16--9--10--------|
B--14--9--14--9--10--------|
G--14--9--14--9--10--------|
D--------------------------|
A--------------------------|
E--------------------------|


Feedback & comments welcome!
If you get a chance, please check out my original music :)

http://soundcloud.com/laura-rai
Tap to rate this tab
# A B C D E F G H I J K L M N O P Q R S T U V W X Y Z