Song name
# A B C D E F G H I J K L M N O P Q R S T U V W X Y Z

Chairlift - Bruises Acoustic chords

Highlighted       Show chord diagrams
Bruises by Chairlift
Basic tab and chords for a nice sounding acoustic version
Credit for chords goes to GelliGirl

Bass Intro:
E|--------------------------------------------------------------------------|
B|--------------------------------------------------------------------------|
G|--------------------------------------------------------------------------|
D|-----------5-3-3-3-3-2----------------------------------------------------|
A|-3-3-3-3-3-------------0-0-0-0-3-----------2------------------------------|
E|---------------------------------3-3-3-3-3--------------------------------|

Or if you want the slide at the end, play this:
E|--------------------------------------------------------------------------|
B|--------------------------------------------------------------------------|
G|--------------------------------------------------------------------------|
D|-----------5-3-3-3-3-2----------------------------------------------------|
A|-3-3-3-3-3-------------0-0-0-0-3------------------------------------------|
E|---------------------------------3-3-3-3-3/7------------------------------|


C F Am G

C
I tried to do handstands for you
F
I tried to do headstands for you
Am                           G
Everytime I fell you on yeah everytime I fell
C
I tried to do handstands for you
F
But everytime I fell for you
Am                              G
I'm permanently black and blue, permanently blue for you

C F Am G
C F Am G

C
I tried to do handstands for you
F
I tried to do headstands for you
Am                           G
Everytime I fell on you yeah everytime I fell
C                            F
I tried to do handstands but everytime I fell for you
Am                              G
I'm permanently black and blue, permanently blue for

Chorus:

C             F
You-ooo etc...
Am            G
For you-ooo etc...
C             F
So black and blue-oooo etc...
Am            G
For you-ooo etc...

C F Am G
C F Am G

Man verse:
C                                     F
I grabbed some frozen strawberries so I could ice your bruisy knees
Am                                      G
But frozen things they all unfreeze and now I taste like
C                               F
All those frozen strawberries I used to chill your bruisy knees,
Am
Hot July ain't good to me
G
I'm pink and black and blue

2nd Verse:

C
I got bruises on my knees for you
F
And grass stains on my knees for you
Am
Got holes in my new jeans for you
G
Got pink and black and blue
C
Got bruises on my knees for you
F
And grass stains on my knees for you
Am
Got holes in my new jeans for you
G
Got pink and black and blue for

Chorus:

C         F
You-ooo etc...
Am        G
For you-ooo etc....
C         F
So black and blue-ooo etc...
Am        G
For you-oooo etc....

Am
Do-doo-do-do-do (x5)
F
Do-doo-do-do-do
Am
Do-doo-do-do-do
G
Do-doo-do-do-do

Am F Am G
Am F Am G 
C
Tap to rate this tab
# A B C D E F G H I J K L M N O P Q R S T U V W X Y Z