Song name
# A B C D E F G H I J K L M N O P Q R S T U V W X Y Z

Chameleon Circuit - Exterminate Regenerate tab

Alright, this is my first tab, and I'm a beginner, but I got some of those from 
when Lex played it on Alex's channel.
Here:

e|----3-----2-----2-----2--|
B|----3-----3-----3-----2--|
G|----4-----4-----2-----3--|
D|-------------------------|
A|-------------------------|
E|-------------------------|

Then you slide down...

e|-----3-----5-----3------2------3-----2------2-----2--|
B|-----3-----3-----3------3------3-----3------3-----2--|
G|-----4-----4-----4------4------4-----4------2-----3--|
D|-----------------------------------------------------|
A|-----------------------------------------------------|
D|-----------------------------------------------------|
Tap to rate this tab
# A B C D E F G H I J K L M N O P Q R S T U V W X Y Z