Chameleon Circuit - Blink tab

Chameleon Circuit are AWESHUM! I'm pretty sure the tab is right! Enjoy :D

-8--10-10-10--12-12-12--13-13-13--12-12-12-|
-------------------------------------------|
-------------------------------------------|
-------------------------------------------|
-------------------------------------------|
-------------------------------------------|


-10--8-----8----8--10-----8--10-10-10--12--|
------10---10------------------------------|
-------------------------------------------|
-------------------------------------------|
-------------------------------------------|
-------------------------------------------|

-12-12--13-13-13--12-12-12--17--15--13--15-|
-------------------------------------------|
-------------------------------------------|
-------------------------------------------|
-------------------------------------------|
-------------------------------------------|

--13--12h13p12--12--13--12--10--10--12--13-|
-------------------------------------------|
-------------------------------------------|
-------------------------------------------|
-------------------------------------------|
-------------------------------------------|

-12--10--12--10--8--10---------------------|
-------------------------------------------|
-------------------------------------------|
-------------------------------------------|
-------------------------------------------|
-------------------------------------------|
Tap to rate this tab
 
# A B C D E F G H I J K L M N O P Q R S T U V W X Y Z