Song name
# A B C D E F G H I J K L M N O P Q R S T U V W X Y Z

Chameleon Circuit - Gallifreyan History 101 tab

-------------------------------------------------------------------------------
               Gallifreyan History - Chameleon Circuit
-------------------------------------------------------------------------------
Tabbed by: Asfomu
Email: Asfomu@gmail.com

Tuning:Standard: EADGBe

The bends are all -note bends

e|-----------------|------------------|-------------------|-----------------|
B|-----------------|-------5----------|-------------------|-----------------|
G|-5--5-5-5-5-5-5--|-7-7-7------7-5---|-------------------|-----------------|
D|-----------------|------------------|-7--5-7--5-7-5-----|-7--5-7--5-7-----|
A|-----------------|------------------|-------------------|-----------------|
E|-----------------|------------------|-------------------|-----------------|

e|-----------------|------------------|-------------------|-------------8---|
B|-----------------|----5-----5--8----|-10-10-8-10-8-10-8-|-10-8-10--10-----|
G|-5--5-5-5-5-5-5--|-7b---7b----------|-------------------|-----------------|
D|-----------------|------------------|-------------------|-----------------|
A|-----------------|------------------|-------------------|-----------------|
E|-----------------|------------------|-------------------|-----------------|

e|-10b--10b--10b---|-10br--8---10-----|-8b----------------|--------------8--|
B|-----------------|------------------|------10---------8-|-10-8-10-8-10----|
G|-----------------|------------------|-------------------|-----------------|
D|-----------------|------------------|-------------------|-----------------|
A|-----------------|------------------|-------------------|-----------------|
E|-----------------|------------------|-------------------|-----------------|

e|-10b-10b--10br-10|-13----10-13-10---|-15--15------------|-----------------|
B|-----------------|------------------|-------------------|-----------------|
G|-----------------|------------------|-------------------|-----------------|
D|-----------------|------------------|-------------------|-----------------|
A|-----------------|------------------|-------------------|-----------------|
E|-----------------|------------------|-------------------|-----------------|



************************************

| /   slide up
| \   slide down
| h   hammer-on
| p   pull-off
| ~   vibrato
| +   harmonic
| x   Mute note
| b   Bend
| pb  Pre-bend
| br  Bend release
| pbr Pre-bend release
| brb Bend release bend

************************************
Tap to rate this tab
 
# A B C D E F G H I J K L M N O P Q R S T U V W X Y Z