Song name
# A B C D E F G H I J K L M N O P Q R S T U V W X Y Z

Chameleon Circuit - Blink tab

-------------------------------------------------------------------------------
                         BLINK- Chameleon Circuit
-------------------------------------------------------------------------------
Tabbed by: Pervert Sugar
Email: littlemissryuk@yahoo.com
Tuning: Standard

OPENING
 The easiest way to do the opening is by doing the chord progression ( D F C G) 
all in open chords. 
      D        F       C     G
e|---------|-------|-------|3333|
B|-----3---|---1---|-------|0000|
G|---2--2--|-2--2--|---0---|0000|
D|--0-0--0-|3-3--3-|-2--2--|0000|
A|---------|-------|3-3--3-|2222|
E|---------|-------|-------|3333|

SOLO
 The solo takes place mostly on the last 2 strings.
e|--000111000-----------0001113331116313101p00010---010-0---|
B|/3---------31-1-133-33--------------------------33---3-323|
G|-------------2-2------------------------------------------|
D|----------------------------------------------------------|
A|----------------------------------------------------------|
E|----------------------------------------------------------|


************************************

| /   slide up
| \   slide down
| h   hammer-on
| p   pull-off
| ~   vibrato
| +   harmonic
| x   Mute note
| b   Bend
| pb  Pre-bend
| br  Bend release
| pbr Pre-bend release
| brb Bend release bend

************************************
Tap to rate this tab
# A B C D E F G H I J K L M N O P Q R S T U V W X Y Z