Song name
# A B C D E F G H I J K L M N O P Q R S T U V W X Y Z

Champion - Promises Kept tab

----------------------------------------------------------------------------
             Promises Kept-Champion

----------------------------------------------------------------------------
Mike Crucial www.myspace.com/mikecrucial



I Copied this song from someone else so everyone can have it




e|-------------------------------------------------|
B|-------------------------------------------------|
G|-9-9-9-9-9-9-9-9-9-9-9-9-9-9-9-9-9-9-9-9-9-9-9-9-|
D|-9-9-9-9-9-9-9-9-9-9-9-9-9-9-9-9-9-9-9-9-9-9-9-9-|
A|-7-7-7-7-7-7-7-7-7-7-7-7-7-7-7-7-7-7-7-7-7-7-7-7-|
E|-------------------------------------------------|


e|---------------------------------|
B|---------------------------------|
G|-5-5-5-5-5-5-5-5-7-7-7-7-7-7-7-7-|
D|-5-5-5-5-5-5-5-5-7-7-7-7-7-7-7-7-|
A|-3-3-3-3-3-3-3-3-5-5-5-5-5-5-5-5-|
E|---------------------------------|


e|-------------------------------------------------|
B|-------------------------------------------------|
G|-9-9-9-9-9-9-9-9-9-9-9-9-9-9-9-9-9-9-9-9-9-9-9-9-|
D|-9-9-9-9-9-9-9-9-9-9-9-9-9-9-9-9-9-9-9-9-9-9-9-9-|
A|-7-7-7-7-7-7-7-7-7-7-7-7-7-7-7-7-7-7-7-7-7-7-7-7-|
E|-------------------------------------------------|


e|-----------------------------------------------------------------|
B|-----------------------------------------------------------------|
G|-12-12-12-12-12-12-12-12-14-14-14-14-14-14-14-14-----------------|
D|-12-12-12-12-12-12-12-12-14-14-14-14-14-14-14-14-----------------|
A|-10-10-10-10-10-10-10-10-12-12-12-12-12-12-12-12-----------------|
E|-----------------------------------------------------------------|


e|-------------------------------------------------|
B|-------------------------------------------------|
G|-9-9-9-9-9-9-9-9-9-9-9-9-9-9-9-9-9-9-9-9-9-9-9-9-|
D|-9-9-9-9-9-9-9-9-9-9-9-9-9-9-9-9-9-9-9-9-9-9-9-9-|      BREAK!
A|-7-7-7-7-7-7-7-7-7-7-7-7-7-7-7-7-7-7-7-7-7-7-7-7-|
E|-------------------------------------------------|

e|----------------------------------------|
B|----------------------------------------|
G|-9-9-9-9-5-5-5-5---------5-5-7-7-9-9-9-9|
D|-9-9-9-9-5-5-5-5-5-5-5-5-5-5-7-7-9-9-9-9|   x5
A|-7-7-7-7-3-3-3-3-5-5-5-5-3-3-5-5-7-7-7-7|
E|-----------------3-3-3-3----------------|


e|----------------------------------------|
B|----------------------------------------|
G|----------------------------------------|
D|-2-2-2-2-2-2-2-2-2-2-2-2-2-2-2-2--------|
A|-2-2-2-2-2-2-2-2-2-2-2-2-2-2-2-2--------|
E|-0-0-0-0-0-0-0-0-0-0-0-0-0-0-0-0--------|

Vocals Begin here!:

Alone in a crowd, but we're still standing strong
With X's up fists and sing alongs
Times like these are what we live for
These days are more than we'd ever hoped for

We're still here, and we'll never forget the words we said
Time flies by, and the promises made will stay with us
Through our lives

e|----------------------------------------|
B|----------------------------------------|
G|-9-9-9-9-5-5-5-5---------5-5-7-7-9-9-9-9|
D|-9-9-9-9-5-5-5-5-5-5-5-5-5-5-7-7-9-9-9-9|   x5
A|-7-7-7-7-3-3-3-3-5-5-5-5-3-3-5-5-7-7-7-7|
E|-----------------3-3-3-3----------------|

We're not finished yet, that's right



e|----------------------------------------|
B|----------------------------------------|
G|----------------------------------------|
D|-2-2-2-2-2-2-2-2-2-2-2-2-2-2-2-2--------|
A|-2-2-2-2-2-2-2-2-2-2-2-2-2-2-2-2--------|
E|-0-0-0-0-0-0-0-0-0-0-0-0-0-0-0-0--------|



e|-----------------|
B|-----------------|
G|-----------------|
D|-5-7-9-2---------|
A|-5-7-9-2---------|
E|-3-5-7-0---------|

       
Tap to rate this tab
 
# A B C D E F G H I J K L M N O P Q R S T U V W X Y Z