Guitaretab - guitar tabs
Song name
# A B C D E F G H I J K L M N O P Q R S T U V W X Y Z

Champion - Come Out Swingintro tab

-------------------------------------------------------------------------------
		        COME OUT SWINGINTRO - Champion
-------------------------------------------------------------------------------

By: Mike Crucial www.myspace.com/mikecrucial

   Instrumental

E|-----19---------------|------19-----|--------------------------------------|
B|--------19------(x3)--|---------19--|--------------------------------(x2)--|
G|--9--------19---------|--9----------|--2-2-2-2-2-2-2--5-5-5--7-7-7---------|
D|--9-------------------|--9----------|--2-2-2-2-2-2-2--5-5-5--7-7-7---------|
A|--7-------------------|--7----------|--0-0-0-0-0-0-0--3-3-3--5-5-5---------|
E|--0-------------------|--0----------|--------------------------------------|
[ Tab from: http://www.guitaretab.com/c/champion/118240.html ]
E|-----------------------------------------|---------------------------------|
B|-----------------------------------(x2)--|-------------------------6-6-----|
G|---------------------5-5-5--7-7-7--------|--2-2-2-2-2-2--5-5--7-7----------|
D|--7-7-7-7-7/5-5/3-3--5-5-5--7-7-7--------|--2-2-2-2-2-2------------3-3-----|
A|---------------------3-3-3--5-5-5--------|--0-0-0-0-0-0--3-3--5-5----------|
E|-----------------------------------------|---------------------------(x2)--|

E|----------------------------------------------|-------------------------(x2)--|
B|----------------------------------------(x2)--|-------------------------------|
G|----------------------------------------------|--5-5-5--7-7--4-4-4------------|
D|--7-7-7-7-7/5-5/3-3----------------3-3--------|--5-5-5--7-7--4-4-4--5-5--7-7--|
A|---------------------3-3-3--5-5-5-------------|--3-3-3--5-5--2-2-2--5-5--7-7--|
E|----------------------------------------------|---------------------3-3--5-5--|

E|----------------------|----------------|-----------------------------------||
B|----------------(x )--|----------(x )--|-----------------------------------||
G|----------------------|----------------|--5-x-4-------7--------------------||
D|--5-5-5--7-7-7--------|--5-5--7--------|---------5-x-----------------------||
A|--5-5-5--7-7-7--------|--5-5--7--------|--3-x-2-------5--------------------||
E|--3-3-3--5-5-5--------|--3-3--5--------|---------3-x-----------------------||

===============================================================================
Related for Come Out Swingintro tab
Advertisement will be closed in 10 seconds