Song name
# A B C D E F G H I J K L M N O P Q R S T U V W X Y Z

Chancho En Piedra - Discojapi tab

:::  www.chanchonet.cl.cf  :::  Chancho En Piedra Rancagua  :::
________________________________________________________________________________

DISCOJAPI
Por Vicente Ortiz

SI! DISCOJAPI una de las mejores canciones de los chancho, me falta un pedazo pero
iwal lo pongo medio al peo si te sabi el pedaso bien dimelo a vortiz@ctcreuna.cl

IMPORTANTE: El rasgueo lo poni tu

verso


|-----7-----|
|-----8-----|
|-----7-----|
|-7-5-------|
|-----------|
|-----------|

no hay que juzgar...

|-5-6-7-|
|-5-6-7-|
|-5-6-7-|
|-------|
|-------|
|-------|

Quisiera alejar

|-7-5-3-5-|
|-8-5-3-5-|
|-7-5-4-5-|
|---------|
|---------|
|---------|


Significa lo que hago es un error...

|-------------------|                |--------------------|
|-------------------|                |--------------------|
|-------------------|                |--------------------|
|-9-7-------------2-|                |-9-7-5--------------|
|----10-7--7-10-7-0-|                |--------------------|
|--------10-------0-|hay una variacion que es   |---------|

|------------------------------------|
|------------------------------------|
|------------------------------------|
|-9-7--------------------------------|
|----10-7--7-10-7--------------------|
|--------10-------10-7-10-7-5-3-0----|


Es facil decir que eso esta malo...

|-7-5-8-7-7-|
|-8-5-8-7-8-|
|-7-5-9-8-7-|
|-----------|
|-----------|
|-----------|


Solo

|-------------------------------------------------------|
|---3---5----------3---5-----------3---5--------2--2-5~-|
|-4---4---4-2----4---4---4-2-----4---4---4-2--4---4-----|
|----------------------------2--------------------------|
|-------------------------------------------------------|
|-------------------------------------------------------|


Solo 2 (con voces)

|----------------------|---------------------|--------------------------------|
|--3--5----------------|--3-5----------------|--3-5---------------------------|
|-4--4--4-2--0-2--0-2--|-4-4-4-2---0-2-0-----|-4-4-4-2-0-2-4-0-2---0-2-4-2----|
|-----------2----2-----|--------2-2-----2----|--------2-----------2-----------|
|----------------------|---------------------|--------------------------------|
|----------------------|---------------------|--------------------------------|

final

|------------------------|
|------------------------|
|------------------------|
|-9-7--------------------|
|--------7-10-7----------|
|-----10--------10-7-5-3-|


Esta completa la wea pero falta un pedazo, pero si lo sacai me lo mandai a vortiz@ctcreuna.cl
_______________________________________________________________________________
:::  www.chanchonet.cl.cf  :::  Chancho En Piedra Rancagua  :::
Tap to rate this tab
# A B C D E F G H I J K L M N O P Q R S T U V W X Y Z